  0
SECTION
  2
HEADER
  9
$ACADVER
  1
AC1014
  9
$ACADMAINTVER
 70
     0
  9
$DWGCODEPAGE
  3
ANSI_1252
  9
$INSBASE
 10
0.0
 20
0.0
 30
0.0
  9
$EXTMIN
 10
0.0
 20
0.0
 30
0.0
  9
$EXTMAX
 10
8.5
 20
11.0
 30
0.0
  9
$LIMMIN
 10
0.0
 20
0.0
  9
$LIMMAX
 10
12.0
 20
9.0
  9
$ORTHOMODE
 70
     0
  9
$REGENMODE
 70
     1
  9
$FILLMODE
 70
     1
  9
$QTEXTMODE
 70
     0
  9
$MIRRTEXT
 70
     1
  9
$DRAGMODE
 70
     2
  9
$LTSCALE
 40
1.0
  9
$OSMODE
 70
     0
  9
$ATTMODE
 70
     1
  9
$TEXTSIZE
 40
0.2
  9
$TRACEWID
 40
0.05
  9
$TEXTSTYLE
  7
STANDARD
  9
$CLAYER
  8
0
  9
$CELTYPE
  6
BYLAYER
  9
$CECOLOR
 62
   256
  9
$CELTSCALE
 40
1.0
  9
$DELOBJ
 70
     1
  9
$DISPSILH
 70
     0
  9
$DIMSCALE
 40
1.0
  9
$DIMASZ
 40
0.18
  9
$DIMEXO
 40
0.0625
  9
$DIMDLI
 40
0.38
  9
$DIMRND
 40
0.0
  9
$DIMDLE
 40
0.0
  9
$DIMEXE
 40
0.18
  9
$DIMTP
 40
0.0
  9
$DIMTM
 40
0.0
  9
$DIMTXT
 40
0.18
  9
$DIMCEN
 40
0.09
  9
$DIMTSZ
 40
0.0
  9
$DIMTOL
 70
     0
  9
$DIMLIM
 70
     0
  9
$DIMTIH
 70
     1
  9
$DIMTOH
 70
     1
  9
$DIMSE1
 70
     0
  9
$DIMSE2
 70
     0
  9
$DIMTAD
 70
     0
  9
$DIMZIN
 70
     0
  9
$DIMBLK
  1

  9
$DIMASO
 70
     1
  9
$DIMSHO
 70
     1
  9
$DIMPOST
  1

  9
$DIMAPOST
  1

  9
$DIMALT
 70
     0
  9
$DIMALTD
 70
     2
  9
$DIMALTF
 40
25.4
  9
$DIMLFAC
 40
1.0
  9
$DIMTOFL
 70
     0
  9
$DIMTVP
 40
0.0
  9
$DIMTIX
 70
     0
  9
$DIMSOXD
 70
     0
  9
$DIMSAH
 70
     0
  9
$DIMBLK1
  1

  9
$DIMBLK2
  1

  9
$DIMSTYLE
  2
STANDARD
  9
$DIMCLRD
 70
     0
  9
$DIMCLRE
 70
     0
  9
$DIMCLRT
 70
     0
  9
$DIMTFAC
 40
1.0
  9
$DIMGAP
 40
0.09
  9
$DIMJUST
 70
     0
  9
$DIMSD1
 70
     0
  9
$DIMSD2
 70
     0
  9
$DIMTOLJ
 70
     1
  9
$DIMTZIN
 70
     0
  9
$DIMALTZ
 70
     0
  9
$DIMALTTZ
 70
     0
  9
$DIMFIT
 70
     3
  9
$DIMUPT
 70
     0
  9
$DIMUNIT
 70
     2
  9
$DIMDEC
 70
     4
  9
$DIMTDEC
 70
     4
  9
$DIMALTU
 70
     2
  9
$DIMALTTD
 70
     2
  9
$DIMTXSTY
  7
STANDARD
  9
$DIMAUNIT
 70
     0
  9
$LUNITS
 70
     2
  9
$LUPREC
 70
     4
  9
$SKETCHINC
 40
0.1
  9
$FILLETRAD
 40
0.5
  9
$AUNITS
 70
     0
  9
$AUPREC
 70
     0
  9
$MENU
  1
.
  9
$ELEVATION
 40
0.0
  9
$PELEVATION
 40
0.0
  9
$THICKNESS
 40
0.0
  9
$LIMCHECK
 70
     0
  9
$BLIPMODE
 70
     0
  9
$CHAMFERA
 40
0.5
  9
$CHAMFERB
 40
0.5
  9
$CHAMFERC
 40
1.0
  9
$CHAMFERD
 40
0.0
  9
$SKPOLY
 70
     0
  9
$TDCREATE
 40
2450772.666465926
  9
$TDUPDATE
 40
2455851.940393519
  9
$TDINDWG
 40
0.0011564931
  9
$TDUSRTIMER
 40
0.0011564931
  9
$USRTIMER
 70
     1
  9
$ANGBASE
 50
0.0
  9
$ANGDIR
 70
     0
  9
$PDMODE
 70
     0
  9
$PDSIZE
 40
0.0
  9
$PLINEWID
 40
0.0
  9
$COORDS
 70
     1
  9
$SPLFRAME
 70
     0
  9
$SPLINETYPE
 70
     6
  9
$SPLINESEGS
 70
     8
  9
$ATTDIA
 70
     0
  9
$ATTREQ
 70
     1
  9
$HANDLING
 70
     1
  9
$HANDSEED
  5
538
  9
$SURFTAB1
 70
     6
  9
$SURFTAB2
 70
     6
  9
$SURFTYPE
 70
     6
  9
$SURFU
 70
     6
  9
$SURFV
 70
     6
  9
$UCSNAME
  2

  9
$UCSORG
 10
0.0
 20
0.0
 30
0.0
  9
$UCSXDIR
 10
1.0
 20
0.0
 30
0.0
  9
$UCSYDIR
 10
0.0
 20
1.0
 30
0.0
  9
$PUCSNAME
  2

  9
$PUCSORG
 10
0.0
 20
0.0
 30
0.0
  9
$PUCSXDIR
 10
1.0
 20
0.0
 30
0.0
  9
$PUCSYDIR
 10
0.0
 20
1.0
 30
0.0
  9
$USERI1
 70
     0
  9
$USERI2
 70
     0
  9
$USERI3
 70
     0
  9
$USERI4
 70
     0
  9
$USERI5
 70
     0
  9
$USERR1
 40
0.0
  9
$USERR2
 40
0.0
  9
$USERR3
 40
0.0
  9
$USERR4
 40
0.0
  9
$USERR5
 40
0.0
  9
$WORLDVIEW
 70
     1
  9
$SHADEDGE
 70
     3
  9
$SHADEDIF
 70
    70
  9
$TILEMODE
 70
     1
  9
$MAXACTVP
 70
    48
  9
$PINSBASE
 10
0.0
 20
0.0
 30
0.0
  9
$PLIMCHECK
 70
     0
  9
$PEXTMIN
 10
1.000000E+20
 20
1.000000E+20
 30
1.000000E+20
  9
$PEXTMAX
 10
-1.000000E+20
 20
-1.000000E+20
 30
-1.000000E+20
  9
$PLIMMIN
 10
0.0
 20
0.0
  9
$PLIMMAX
 10
12.0
 20
9.0
  9
$UNITMODE
 70
     0
  9
$VISRETAIN
 70
     1
  9
$PLINEGEN
 70
     0
  9
$PSLTSCALE
 70
     1
  9
$TREEDEPTH
 70
  3020
  9
$PICKSTYLE
 70
     1
  9
$CMLSTYLE
  2
STANDARD
  9
$CMLJUST
 70
     0
  9
$CMLSCALE
 40
1.0
  9
$PROXYGRAPHICS
 70
     1
  9
$MEASUREMENT
 70
     0
  0
ENDSEC
  0
SECTION
  2
CLASSES
  0
CLASS
  1
LWPOLYLINE
  2
AcDbPolyline
  3
"AutoCAD"
 90
        0
280
     0
281
     1
  0
CLASS
  1
IMAGE
  2
AcDbRasterImage
  3
ISM
 90
      127
280
     0
281
     1
  0
CLASS
  1
OLE2FRAME
  2
AcDbOle2Frame
  3
""
 90
        0
280
     0
281
     1
  0
CLASS
  1
HATCH
  2
AcDbHatch
  3
"ACAD_SEDONA"
 90
        0
280
     0
281
     1
  0
CLASS
  1
DICTIONARYVAR
  2
AcDbDictionaryVar
  3
"AutoCAD"
 90
        0
280
     0
281
     0
  0
CLASS
  1
RASTERVARIABLES
  2
AcDbRasterVariables
  3
ISM
 90
        0
280
     0
281
     0
  0
CLASS
  1
IMAGEDEF
  2
AcDbRasterImageDef
  3
ISM
 90
        0
280
     0
281
     0
  0
CLASS
  1
IMAGEDEF_REACTOR
  2
AcDbRasterImageDefReactor
  3
ISM
 90
        1
280
     0
281
     0
  0
CLASS
  1
IDBUFFER
  2
AcDbIdBuffer
  3
"Acad"
 90
        0
280
     0
281
     0
  0
CLASS
  1
SPATIAL_FILTER
  2
AcDbSpatialFilter
  3
"Acad"
 90
        0
280
     0
281
     0
  0
CLASS
  1
XRECORD
  2
AcDbXrecord
  3
"<Built In>"
 90
        0
280
     0
281
     0
  0
CLASS
  1
SORTENTSTABLE
  2
AcDbSortentsTable
  3
"AutoCAD"
 90
        0
280
     0
281
     0
  0
CLASS
  1
LAYER_INDEX
  2
AcDbLayerIndex
  3
"Acad"
 90
        0
280
     0
281
     0
  0
CLASS
  1
SPATIAL_INDEX
  2
AcDbSpatialIndex
  3
"Acad"
 90
        0
280
     0
281
     0
  0
CLASS
  1
OBJECT_PTR
  2
CAseDLPNTableRecord
  3
"ASE-LPNTableRecord"
 90
        1
280
     0
281
     0
  0
CLASS
  1
LAYOUT
  2
AcDbLayout
  3
"AutoCAD 2000"
 90
        1
280
     0
281
     0
  0
CLASS
  1
PLOTSETTINGS
  2
AcDbPlotSettings
  3
"AutoCAD 2000"
 90
        1
280
     0
281
     0
  0
CLASS
  1
ACDBDICTIONARYWDFLT
  2
AcDbDictionaryWithDefault
  3
"AutoCAD 2000"
 90
        1
280
     0
281
     0
  0
CLASS
  1
ACDBPLACEHOLDER
  2
AcDbPlaceHolder
  3
"AutoCAD 2000"
 90
        1
280
     0
281
     0
  0
CLASS
  1
VBA_PROJECT
  2
AcDbVbaProject
  3
"acadvba"
 90
        1
280
     0
281
     0
  0
CLASS
  1
WIPEOUT
  2
AcDbWipeout
  3
WipeOut|AutoCAD Express Tool|expresstools@autodesk.com
 90
      127
280
     0
281
     1
  0
CLASS
  1
WIPEOUTVARIABLES
  2
AcDbWipeoutVariables
  3
WipeOut|AutoCAD Express Tool|expresstools@autodesk.com
 90
        0
280
     0
281
     0
  0
CLASS
  1
RTEXT
  2
RText
  3
RText|AutoCAD Express Tool|expresstools@autodesk.com
 90
        0
280
     0
281
     1
  0
CLASS
  1
ARCALIGNEDTEXT
  2
AcDbArcAlignedText
  3
ATEXT|AutoCAD Express Tool|expresstools@autodesk.com
 90
        0
280
     0
281
     1
  0
ENDSEC
  0
SECTION
  2
TABLES
  0
TABLE
  2
VPORT
  5
8
100
AcDbSymbolTable
 70
     1
  0
VPORT
  5
25
100
AcDbSymbolTableRecord
100
AcDbViewportTableRecord
  2
*ACTIVE
 70
    64
 10
0.0
 20
0.0
 11
1.0
 21
1.0
 12
4.25
 22
5.5
 13
0.0
 23
0.0
 14
0.5
 24
0.5
 15
0.5
 25
0.5
 16
0.0
 26
0.0
 36
1.0
 17
0.0
 27
0.0
 37
0.0
 40
11.0
 41
0.772727
 42
50.0
 43
0.0
 44
0.0
 50
0.0
 51
0.0
 71
     0
 72
   100
 73
     1
 74
     1
 75
     0
 76
     0
 77
     0
 78
     0
  0
ENDTAB
  0
TABLE
  2
LTYPE
  5
5
100
AcDbSymbolTable
 70
     3
  0
LTYPE
  5
12
100
AcDbSymbolTableRecord
100
AcDbLinetypeTableRecord
  2
BYBLOCK
 70
    64
  3

 72
    65
 73
     0
 40
0.0
  0
LTYPE
  5
13
100
AcDbSymbolTableRecord
100
AcDbLinetypeTableRecord
  2
BYLAYER
 70
    64
  3

 72
    65
 73
     0
 40
0.0
  0
LTYPE
  5
14
100
AcDbSymbolTableRecord
100
AcDbLinetypeTableRecord
  2
CONTINUOUS
 70
    64
  3
Solid line
 72
    65
 73
     0
 40
0.0
  0
ENDTAB
  0
TABLE
  2
LAYER
  5
2
100
AcDbSymbolTable
 70
     1
  0
LAYER
  5
E
100
AcDbSymbolTableRecord
100
AcDbLayerTableRecord
  2
0
 70
    64
 62
     7
  6
CONTINUOUS
  0
ENDTAB
  0
TABLE
  2
STYLE
  5
3
100
AcDbSymbolTable
 70
     1
  0
STYLE
  5
F
100
AcDbSymbolTableRecord
100
AcDbTextStyleTableRecord
  2
STANDARD
 70
    64
 40
0.0
 41
1.0
 50
0.0
 71
     0
 42
0.2
  3
txt.shx
  4

  0
ENDTAB
  0
TABLE
  2
VIEW
  5
6
100
AcDbSymbolTable
 70
     0
  0
ENDTAB
  0
TABLE
  2
UCS
  5
7
100
AcDbSymbolTable
 70
     0
  0
ENDTAB
  0
TABLE
  2
APPID
  5
9
100
AcDbSymbolTable
 70
     1
  0
APPID
  5
10
100
AcDbSymbolTableRecord
100
AcDbRegAppTableRecord
  2
ACAD
 70
    64
  0
ENDTAB
  0
TABLE
  2
DIMSTYLE
  5
A
100
AcDbSymbolTable
 70
     1
  0
DIMSTYLE
105
1D
100
AcDbSymbolTableRecord
100
AcDbDimStyleTableRecord
  2
STANDARD
 70
    64
  3

  4

  5

  6

  7

 40
1.0
 41
0.18
 42
0.0625
 43
0.38
 44
0.18
 45
0.0
 46
0.0
 47
0.0
 48
0.0
 71
     0
 72
     0
 73
     1
 74
     1
 75
     0
 76
     0
 77
     0
 78
     0
140
0.18
141
0.09
142
0.0
143
25.4
144
1.0
145
0.0
146
1.0
147
0.09
170
     0
171
     2
172
     0
173
     0
174
     0
175
     0
176
     0
177
     0
178
     0
270
     2
271
     4
272
     4
273
     2
274
     2
275
     0
280
     0
281
     0
282
     0
283
     1
284
     0
285
     0
286
     0
287
     3
288
     0
340
F
  0
ENDTAB
  0
TABLE
  2
BLOCK_RECORD
  5
1
100
AcDbSymbolTable
 70
     1
  0
BLOCK_RECORD
  5
18
100
AcDbSymbolTableRecord
100
AcDbBlockTableRecord
  2
*MODEL_SPACE
  0
BLOCK_RECORD
  5
15
100
AcDbSymbolTableRecord
100
AcDbBlockTableRecord
  2
*PAPER_SPACE
  0
BLOCK_RECORD
  5
535
100
AcDbSymbolTableRecord
100
AcDbBlockTableRecord
  2
SHEET_3
  0
ENDTAB
  0
ENDSEC
  0
SECTION
  2
BLOCKS
  0
BLOCK
  5
19
100
AcDbEntity
  8
0
100
AcDbBlockBegin
  2
*MODEL_SPACE
 70
     0
 10
0.0
 20
0.0
 30
0.0
  3
*MODEL_SPACE
  1

  0
ENDBLK
  5
1A
100
AcDbEntity
  8
0
100
AcDbBlockEnd
  0
BLOCK
  5
16
100
AcDbEntity
 67
     1
  8
0
100
AcDbBlockBegin
  2
*PAPER_SPACE
 70
     0
 10
0.0
 20
0.0
 30
0.0
  3
*PAPER_SPACE
  1

  0
ENDBLK
  5
17
100
AcDbEntity
 67
     1
  8
0
100
AcDbBlockEnd
  0
BLOCK
  5
2D
100
AcDbEntity
  8
0
100
AcDbBlockBegin
  2
SHEET_3
 70
    66
 10
4.25
 20
6.208567
 30
0.0
  3
SHEET_3
  1

  0
SOLID
  5
2E
100
AcDbEntity
  8
0
 62
     7
100
AcDbTrace
 10
3.087276
 20
2.719784
 30
0.0
 11
3.077254
 21
2.782423
 31
0.0
 12
3.058462
 22
2.845062
 32
0.0
 13
3.058462
 23
2.845062
 33
0.0
  0
SOLID
  5
2F
100
AcDbEntity
  8
0
 62
     7
100
AcDbTrace
 10
3.087276
 20
2.719784
 30
0.0
 11
3.058462
 21
2.845062
 31
0.0
 12
3.033406
 22
2.895173
 32
0.0
 13
3.033406
 23
2.895173
 33
0.0
  0
SOLID
  5
30
100
AcDbEntity
  8
0
 62
     7
100
AcDbTrace
 10
3.087276
 20
2.719784
 30
0.0
 11
3.033406
 21
2.895173
 31
0.0
 12
3.008351
 22
2.932757
 32
0.0
 13
3.008351
 23
2.932757
 33
0.0
  0
SOLID
  5
31
100
AcDbEntity
  8
0
 62
     7
100
AcDbTrace
 10
3.087276
 20
2.719784
 30
0.0
 11
3.008351
 21
2.932757
 31
0.0
 12
2.964503
 22
2.982868
 32
0.0
 13
2.964503
 23
2.982868
 33
0.0
  0
SOLID
  5
32
100
AcDbEntity
  8
0
 62
     7
100
AcDbTrace
 10
3.087276
 20
2.719784
 30
0.0
 11
2.964503
 21
2.982868
 31
0.0
 12
2.901864
 22
3.026715
 32
0.0
 13
2.901864
 23
3.026715
 33
0.0
  0
SOLID
  5
33
100
AcDbEntity
  8
0
 62
     7
100
AcDbTrace
 10
3.087276
 20
2.719784
 30
0.0
 11
2.901864
 21
3.026715
 31
0.0
 12
2.839225
 22
3.055529
 32
0.0
 13
2.839225
 23
3.055529
 33
0.0
  0
SOLID
  5
34
100
AcDbEntity
  8
0
 62
     7
100
AcDbTrace
 10
3.087276
 20
2.719784
 30
0.0
 11
2.839225
 21
3.055529
 31
0.0
 12
2.757795
 22
3.076827
 32
0.0
 13
2.757795
 23
3.076827
 33
0.0
  0
SOLID
  5
35
100
AcDbEntity
  8
0
 62
     7
100
AcDbTrace
 10
3.087276
 20
2.719784
 30
0.0
 11
2.757795
 21
3.076827
 31
0.0
 12
2.6701
 22
3.089354
 32
0.0
 13
2.6701
 23
3.089354
 33
0.0
  0
SOLID
  5
36
100
AcDbEntity
  8
0
 62
     7
100
AcDbTrace
 10
3.087276
 20
2.719784
 30
0.0
 11
2.6701
 21
3.089354
 31
0.0
 12
2.576141
 22
3.089354
 32
0.0
 13
2.576141
 23
3.089354
 33
0.0
  0
SOLID
  5
37
100
AcDbEntity
  8
0
 62
     7
100
AcDbTrace
 10
3.087276
 20
2.719784
 30
0.0
 11
2.576141
 21
3.089354
 31
0.0
 12
2.482183
 22
3.076827
 32
0.0
 13
2.482183
 23
3.076827
 33
0.0
  0
SOLID
  5
38
100
AcDbEntity
  8
0
 62
     7
100
AcDbTrace
 10
3.087276
 20
2.719784
 30
0.0
 11
2.482183
 21
3.076827
 31
0.0
 12
2.394488
 22
3.051771
 32
0.0
 13
2.394488
 23
3.051771
 33
0.0
  0
SOLID
  5
39
100
AcDbEntity
  8
0
 62
     7
100
AcDbTrace
 10
3.087276
 20
2.719784
 30
0.0
 11
2.394488
 21
3.051771
 31
0.0
 12
2.313057
 22
3.007924
 32
0.0
 13
2.313057
 23
3.007924
 33
0.0
  0
SOLID
  5
3A
100
AcDbEntity
  8
0
 62
     7
100
AcDbTrace
 10
3.087276
 20
2.719784
 30
0.0
 11
2.313057
 21
3.007924
 31
0.0
 12
2.244154
 22
2.939021
 32
0.0
 13
2.244154
 23
2.939021
 33
0.0
  0
SOLID
  5
3B
100
AcDbEntity
  8
0
 62
     7
100
AcDbTrace
 10
3.087276
 20
2.719784
 30
0.0
 11
2.244154
 21
2.939021
 31
0.0
 12
2.197802
 22
2.851326
 32
0.0
 13
2.197802
 23
2.851326
 33
0.0
  0
SOLID
  5
3C
100
AcDbEntity
  8
0
 62
     7
100
AcDbTrace
 10
3.087276
 20
2.719784
 30
0.0
 11
2.197802
 21
2.851326
 31
0.0
 12
2.181515
 22
2.776159
 32
0.0
 13
2.181515
 23
2.776159
 33
0.0
  0
SOLID
  5
3D
100
AcDbEntity
  8
0
 62
     7
100
AcDbTrace
 10
3.087276
 20
2.719784
 30
0.0
 11
2.181515
 21
2.776159
 31
0.0
 12
2.185274
 22
2.694729
 32
0.0
 13
2.185274
 23
2.694729
 33
0.0
  0
SOLID
  5
3E
100
AcDbEntity
  8
0
 62
     7
100
AcDbTrace
 10
3.087276
 20
2.719784
 30
0.0
 11
2.185274
 21
2.694729
 31
0.0
 12
2.206571
 22
2.625826
 32
0.0
 13
2.206571
 23
2.625826
 33
0.0
  0
SOLID
  5
3F
100
AcDbEntity
  8
0
 62
     7
100
AcDbTrace
 10
3.087276
 20
2.719784
 30
0.0
 11
2.206571
 21
2.625826
 31
0.0
 12
2.250418
 22
2.559428
 32
0.0
 13
2.250418
 23
2.559428
 33
0.0
  0
SOLID
  5
40
100
AcDbEntity
  8
0
 62
     7
100
AcDbTrace
 10
3.087276
 20
2.719784
 30
0.0
 11
2.250418
 21
2.559428
 31
0.0
 12
2.319321
 22
2.500548
 32
0.0
 13
2.319321
 23
2.500548
 33
0.0
  0
SOLID
  5
41
100
AcDbEntity
  8
0
 62
     7
100
AcDbTrace
 10
3.087276
 20
2.719784
 30
0.0
 11
2.319321
 21
2.500548
 31
0.0
 12
2.407016
 22
2.4567
 32
0.0
 13
2.407016
 23
2.4567
 33
0.0
  0
SOLID
  5
42
100
AcDbEntity
  8
0
 62
     7
100
AcDbTrace
 10
3.087276
 20
2.719784
 30
0.0
 11
2.407016
 21
2.4567
 31
0.0
 12
2.507238
 22
2.425381
 32
0.0
 13
2.507238
 23
2.425381
 33
0.0
  0
SOLID
  5
43
100
AcDbEntity
  8
0
 62
     7
100
AcDbTrace
 10
3.087276
 20
2.719784
 30
0.0
 11
2.507238
 21
2.425381
 31
0.0
 12
2.632517
 22
2.394061
 32
0.0
 13
2.632517
 23
2.394061
 33
0.0
  0
SOLID
  5
44
100
AcDbEntity
  8
0
 62
     7
100
AcDbTrace
 10
3.087276
 20
2.719784
 30
0.0
 11
2.632517
 21
2.394061
 31
0.0
 12
2.770322
 22
2.356478
 32
0.0
 13
2.770322
 23
2.356478
 33
0.0
  0
SOLID
  5
45
100
AcDbEntity
  8
0
 62
     7
100
AcDbTrace
 10
3.087276
 20
2.719784
 30
0.0
 11
2.770322
 21
2.356478
 31
0.0
 12
2.858017
 22
2.325158
 32
0.0
 13
2.858017
 23
2.325158
 33
0.0
  0
SOLID
  5
46
100
AcDbEntity
  8
0
 62
     7
100
AcDbTrace
 10
3.087276
 20
2.719784
 30
0.0
 11
2.858017
 21
2.325158
 31
0.0
 12
2.901864
 22
2.296344
 32
0.0
 13
2.901864
 23
2.296344
 33
0.0
  0
SOLID
  5
47
100
AcDbEntity
  8
0
 62
     7
100
AcDbTrace
 10
3.087276
 20
2.719784
 30
0.0
 11
2.901864
 21
2.296344
 31
0.0
 12
2.933184
 22
2.265025
 32
0.0
 13
2.933184
 23
2.265025
 33
0.0
  0
SOLID
  5
48
100
AcDbEntity
  8
0
 62
     7
100
AcDbTrace
 10
3.087276
 20
2.719784
 30
0.0
 11
2.933184
 21
2.265025
 31
0.0
 12
2.951976
 22
2.2312
 32
0.0
 13
2.951976
 23
2.2312
 33
0.0
  0
SOLID
  5
49
100
AcDbEntity
  8
0
 62
     7
100
AcDbTrace
 10
3.087276
 20
2.719784
 30
0.0
 11
2.951976
 21
2.2312
 31
0.0
 12
2.964503
 22
2.187352
 32
0.0
 13
2.964503
 23
2.187352
 33
0.0
  0
SOLID
  5
4A
100
AcDbEntity
  8
0
 62
     7
100
AcDbTrace
 10
3.087276
 20
2.719784
 30
0.0
 11
2.964503
 21
2.187352
 31
0.0
 12
2.964503
 22
2.143505
 32
0.0
 13
2.964503
 23
2.143505
 33
0.0
  0
SOLID
  5
4B
100
AcDbEntity
  8
0
 62
     7
100
AcDbTrace
 10
3.087276
 20
2.719784
 30
0.0
 11
2.964503
 21
2.143505
 31
0.0
 12
2.94947
 22
2.08713
 32
0.0
 13
2.94947
 23
2.08713
 33
0.0
  0
SOLID
  5
4C
100
AcDbEntity
  8
0
 62
     7
100
AcDbTrace
 10
3.087276
 20
2.719784
 30
0.0
 11
2.94947
 21
2.08713
 31
0.0
 12
2.920656
 22
2.043283
 32
0.0
 13
2.920656
 23
2.043283
 33
0.0
  0
SOLID
  5
4D
100
AcDbEntity
  8
0
 62
     7
100
AcDbTrace
 10
3.087276
 20
2.719784
 30
0.0
 11
2.920656
 21
2.043283
 31
0.0
 12
2.864281
 22
1.999435
 32
0.0
 13
2.864281
 23
1.999435
 33
0.0
  0
SOLID
  5
4E
100
AcDbEntity
  8
0
 62
     7
100
AcDbTrace
 10
3.087276
 20
2.719784
 30
0.0
 11
2.864281
 21
1.999435
 31
0.0
 12
2.789114
 22
1.968116
 32
0.0
 13
2.789114
 23
1.968116
 33
0.0
  0
SOLID
  5
4F
100
AcDbEntity
  8
0
 62
     7
100
AcDbTrace
 10
3.087276
 20
2.719784
 30
0.0
 11
2.789114
 21
1.968116
 31
0.0
 12
2.713947
 22
1.953082
 32
0.0
 13
2.713947
 23
1.953082
 33
0.0
  0
SOLID
  5
50
100
AcDbEntity
  8
0
 62
     7
100
AcDbTrace
 10
3.087276
 20
2.719784
 30
0.0
 11
2.713947
 21
1.953082
 31
0.0
 12
2.594933
 22
1.953082
 32
0.0
 13
2.594933
 23
1.953082
 33
0.0
  0
SOLID
  5
51
100
AcDbEntity
  8
0
 62
     7
100
AcDbTrace
 10
3.087276
 20
2.719784
 30
0.0
 11
2.594933
 21
1.953082
 31
0.0
 12
2.513502
 22
1.968116
 32
0.0
 13
2.513502
 23
1.968116
 33
0.0
  0
SOLID
  5
52
100
AcDbEntity
  8
0
 62
     7
100
AcDbTrace
 10
3.087276
 20
2.719784
 30
0.0
 11
2.513502
 21
1.968116
 31
0.0
 12
2.438336
 22
1.999435
 32
0.0
 13
2.438336
 23
1.999435
 33
0.0
  0
SOLID
  5
53
100
AcDbEntity
  8
0
 62
     7
100
AcDbTrace
 10
3.087276
 20
2.719784
 30
0.0
 11
2.438336
 21
1.999435
 31
0.0
 12
2.373191
 22
2.043283
 32
0.0
 13
2.373191
 23
2.043283
 33
0.0
  0
SOLID
  5
54
100
AcDbEntity
  8
0
 62
     7
100
AcDbTrace
 10
3.087276
 20
2.719784
 30
0.0
 11
2.373191
 21
2.043283
 31
0.0
 12
2.331849
 22
2.093394
 32
0.0
 13
2.331849
 23
2.093394
 33
0.0
  0
SOLID
  5
55
100
AcDbEntity
  8
0
 62
     7
100
AcDbTrace
 10
3.087276
 20
2.719784
 30
0.0
 11
2.331849
 21
2.093394
 31
0.0
 12
2.303035
 22
2.156033
 32
0.0
 13
2.303035
 23
2.156033
 33
0.0
  0
SOLID
  5
56
100
AcDbEntity
  8
0
 62
     7
100
AcDbTrace
 10
3.087276
 20
2.719784
 30
0.0
 11
2.303035
 21
2.156033
 31
0.0
 12
2.288002
 22
2.237464
 32
0.0
 13
2.288002
 23
2.237464
 33
0.0
  0
SOLID
  5
57
100
AcDbEntity
  8
0
 62
     7
100
AcDbTrace
 10
3.087276
 20
2.719784
 30
0.0
 11
2.288002
 21
2.237464
 31
0.0
 12
2.131404
 22
2.224936
 32
0.0
 13
2.131404
 23
2.224936
 33
0.0
  0
SOLID
  5
58
100
AcDbEntity
  8
0
 62
     7
100
AcDbTrace
 10
3.087276
 20
2.719784
 30
0.0
 11
2.131404
 21
2.224936
 31
0.0
 12
2.140174
 22
2.149769
 32
0.0
 13
2.140174
 23
2.149769
 33
0.0
  0
SOLID
  5
59
100
AcDbEntity
  8
0
 62
     7
100
AcDbTrace
 10
3.087276
 20
2.719784
 30
0.0
 11
2.140174
 21
2.149769
 31
0.0
 12
2.162724
 22
2.074602
 32
0.0
 13
2.162724
 23
2.074602
 33
0.0
  0
SOLID
  5
5A
100
AcDbEntity
  8
0
 62
     7
100
AcDbTrace
 10
3.087276
 20
2.719784
 30
0.0
 11
2.162724
 21
2.074602
 31
0.0
 12
2.197802
 22
2.005699
 32
0.0
 13
2.197802
 23
2.005699
 33
0.0
  0
SOLID
  5
5B
100
AcDbEntity
  8
0
 62
     7
100
AcDbTrace
 10
3.087276
 20
2.719784
 30
0.0
 11
2.197802
 21
2.005699
 31
0.0
 12
2.256682
 22
1.936796
 32
0.0
 13
2.256682
 23
1.936796
 33
0.0
  0
SOLID
  5
5C
100
AcDbEntity
  8
0
 62
     7
100
AcDbTrace
 10
3.087276
 20
2.719784
 30
0.0
 11
2.256682
 21
1.936796
 31
0.0
 12
2.331849
 22
1.880421
 32
0.0
 13
2.331849
 23
1.880421
 33
0.0
  0
SOLID
  5
5D
100
AcDbEntity
  8
0
 62
     7
100
AcDbTrace
 10
3.087276
 20
2.719784
 30
0.0
 11
2.331849
 21
1.880421
 31
0.0
 12
2.419544
 22
1.840332
 32
0.0
 13
2.419544
 23
1.840332
 33
0.0
  0
SOLID
  5
5E
100
AcDbEntity
  8
0
 62
     7
100
AcDbTrace
 10
3.087276
 20
2.719784
 30
0.0
 11
2.419544
 21
1.840332
 31
0.0
 12
2.513502
 22
1.817782
 32
0.0
 13
2.513502
 23
1.817782
 33
0.0
  0
SOLID
  5
5F
100
AcDbEntity
  8
0
 62
     7
100
AcDbTrace
 10
3.087276
 20
2.719784
 30
0.0
 11
2.513502
 21
1.817782
 31
0.0
 12
2.613725
 22
1.80776
 32
0.0
 13
2.613725
 23
1.80776
 33
0.0
  0
SOLID
  5
60
100
AcDbEntity
  8
0
 62
     7
100
AcDbTrace
 10
3.087276
 20
2.719784
 30
0.0
 11
2.613725
 21
1.80776
 31
0.0
 12
2.707683
 22
1.80776
 32
0.0
 13
2.707683
 23
1.80776
 33
0.0
  0
SOLID
  5
61
100
AcDbEntity
  8
0
 62
     7
100
AcDbTrace
 10
3.087276
 20
2.719784
 30
0.0
 11
2.707683
 21
1.80776
 31
0.0
 12
2.81417
 22
1.824046
 32
0.0
 13
2.81417
 23
1.824046
 33
0.0
  0
SOLID
  5
62
100
AcDbEntity
  8
0
 62
     7
100
AcDbTrace
 10
3.087276
 20
2.719784
 30
0.0
 11
2.81417
 21
1.824046
 31
0.0
 12
2.914392
 22
1.861629
 32
0.0
 13
2.914392
 23
1.861629
 33
0.0
  0
SOLID
  5
63
100
AcDbEntity
  8
0
 62
     7
100
AcDbTrace
 10
3.087276
 20
2.719784
 30
0.0
 11
2.914392
 21
1.861629
 31
0.0
 12
3.002087
 22
1.918004
 32
0.0
 13
3.002087
 23
1.918004
 33
0.0
  0
SOLID
  5
64
100
AcDbEntity
  8
0
 62
     7
100
AcDbTrace
 10
3.087276
 20
2.719784
 30
0.0
 11
3.002087
 21
1.918004
 31
0.0
 12
3.064726
 22
1.993171
 32
0.0
 13
3.064726
 23
1.993171
 33
0.0
  0
SOLID
  5
65
100
AcDbEntity
  8
0
 62
     7
100
AcDbTrace
 10
3.087276
 20
2.719784
 30
0.0
 11
3.064726
 21
1.993171
 31
0.0
 12
3.108573
 22
2.08713
 32
0.0
 13
3.108573
 23
2.08713
 33
0.0
  0
SOLID
  5
66
100
AcDbEntity
  8
0
 62
     7
100
AcDbTrace
 10
3.087276
 20
2.719784
 30
0.0
 11
3.108573
 21
2.08713
 31
0.0
 12
3.121101
 22
2.162297
 32
0.0
 13
3.121101
 23
2.162297
 33
0.0
  0
SOLID
  5
67
100
AcDbEntity
  8
0
 62
     7
100
AcDbTrace
 10
3.087276
 20
2.719784
 30
0.0
 11
3.121101
 21
2.162297
 31
0.0
 12
3.114837
 22
2.237464
 32
0.0
 13
3.114837
 23
2.237464
 33
0.0
  0
SOLID
  5
68
100
AcDbEntity
  8
0
 62
     7
100
AcDbTrace
 10
3.087276
 20
2.719784
 30
0.0
 11
3.114837
 21
2.237464
 31
0.0
 12
3.089782
 22
2.318894
 32
0.0
 13
3.089782
 23
2.318894
 33
0.0
  0
SOLID
  5
69
100
AcDbEntity
  8
0
 62
     7
100
AcDbTrace
 10
3.087276
 20
2.719784
 30
0.0
 11
3.089782
 21
2.318894
 31
0.0
 12
3.042176
 22
2.387797
 32
0.0
 13
3.042176
 23
2.387797
 33
0.0
  0
SOLID
  5
6A
100
AcDbEntity
  8
0
 62
     7
100
AcDbTrace
 10
3.087276
 20
2.719784
 30
0.0
 11
3.042176
 21
2.387797
 31
0.0
 12
2.983295
 22
2.437908
 32
0.0
 13
2.983295
 23
2.437908
 33
0.0
  0
SOLID
  5
6B
100
AcDbEntity
  8
0
 62
     7
100
AcDbTrace
 10
3.087276
 20
2.719784
 30
0.0
 11
2.983295
 21
2.437908
 31
0.0
 12
2.901864
 22
2.481756
 32
0.0
 13
2.901864
 23
2.481756
 33
0.0
  0
SOLID
  5
6C
100
AcDbEntity
  8
0
 62
     7
100
AcDbTrace
 10
3.087276
 20
2.719784
 30
0.0
 11
2.901864
 21
2.481756
 31
0.0
 12
2.81417
 22
2.513075
 32
0.0
 13
2.81417
 23
2.513075
 33
0.0
  0
SOLID
  5
6D
100
AcDbEntity
  8
0
 62
     7
100
AcDbTrace
 10
3.087276
 20
2.719784
 30
0.0
 11
2.81417
 21
2.513075
 31
0.0
 12
2.63878
 22
2.556923
 32
0.0
 13
2.63878
 23
2.556923
 33
0.0
  0
SOLID
  5
6E
100
AcDbEntity
  8
0
 62
     7
100
AcDbTrace
 10
3.087276
 20
2.719784
 30
0.0
 11
2.63878
 21
2.556923
 31
0.0
 12
2.519766
 22
2.588242
 32
0.0
 13
2.519766
 23
2.588242
 33
0.0
  0
SOLID
  5
6F
100
AcDbEntity
  8
0
 62
     7
100
AcDbTrace
 10
3.087276
 20
2.719784
 30
0.0
 11
2.519766
 21
2.588242
 31
0.0
 12
2.463391
 22
2.607034
 32
0.0
 13
2.463391
 23
2.607034
 33
0.0
  0
SOLID
  5
70
100
AcDbEntity
  8
0
 62
     7
100
AcDbTrace
 10
3.087276
 20
2.719784
 30
0.0
 11
2.463391
 21
2.607034
 31
0.0
 12
2.419544
 22
2.625826
 32
0.0
 13
2.419544
 23
2.625826
 33
0.0
  0
SOLID
  5
71
100
AcDbEntity
  8
0
 62
     7
100
AcDbTrace
 10
3.087276
 20
2.719784
 30
0.0
 11
2.419544
 21
2.625826
 31
0.0
 12
2.388224
 22
2.644617
 32
0.0
 13
2.388224
 23
2.644617
 33
0.0
  0
SOLID
  5
72
100
AcDbEntity
  8
0
 62
     7
100
AcDbTrace
 10
3.087276
 20
2.719784
 30
0.0
 11
2.388224
 21
2.644617
 31
0.0
 12
2.363169
 22
2.669673
 32
0.0
 13
2.363169
 23
2.669673
 33
0.0
  0
SOLID
  5
73
100
AcDbEntity
  8
0
 62
     7
100
AcDbTrace
 10
3.087276
 20
2.719784
 30
0.0
 11
2.363169
 21
2.669673
 31
0.0
 12
2.344377
 22
2.704751
 32
0.0
 13
2.344377
 23
2.704751
 33
0.0
  0
SOLID
  5
74
100
AcDbEntity
  8
0
 62
     7
100
AcDbTrace
 10
3.087276
 20
2.719784
 30
0.0
 11
2.344377
 21
2.704751
 31
0.0
 12
2.335607
 22
2.738576
 32
0.0
 13
2.335607
 23
2.738576
 33
0.0
  0
SOLID
  5
75
100
AcDbEntity
  8
0
 62
     7
100
AcDbTrace
 10
3.087276
 20
2.719784
 30
0.0
 11
2.335607
 21
2.738576
 31
0.0
 12
2.335607
 22
2.769895
 32
0.0
 13
2.335607
 23
2.769895
 33
0.0
  0
SOLID
  5
76
100
AcDbEntity
  8
0
 62
     7
100
AcDbTrace
 10
3.087276
 20
2.719784
 30
0.0
 11
2.335607
 21
2.769895
 31
0.0
 12
2.344377
 22
2.813743
 32
0.0
 13
2.344377
 23
2.813743
 33
0.0
  0
SOLID
  5
77
100
AcDbEntity
  8
0
 62
     7
100
AcDbTrace
 10
3.087276
 20
2.719784
 30
0.0
 11
2.344377
 21
2.813743
 31
0.0
 12
2.363169
 22
2.851326
 32
0.0
 13
2.363169
 23
2.851326
 33
0.0
  0
SOLID
  5
78
100
AcDbEntity
  8
0
 62
     7
100
AcDbTrace
 10
3.087276
 20
2.719784
 30
0.0
 11
2.363169
 21
2.851326
 31
0.0
 12
2.408269
 22
2.896426
 32
0.0
 13
2.408269
 23
2.896426
 33
0.0
  0
SOLID
  5
79
100
AcDbEntity
  8
0
 62
     7
100
AcDbTrace
 10
3.087276
 20
2.719784
 30
0.0
 11
2.408269
 21
2.896426
 31
0.0
 12
2.465897
 22
2.926493
 32
0.0
 13
2.465897
 23
2.926493
 33
0.0
  0
SOLID
  5
7A
100
AcDbEntity
  8
0
 62
     7
100
AcDbTrace
 10
3.087276
 20
2.719784
 30
0.0
 11
2.465897
 21
2.926493
 31
0.0
 12
2.551086
 22
2.945285
 32
0.0
 13
2.551086
 23
2.945285
 33
0.0
  0
SOLID
  5
7B
100
AcDbEntity
  8
0
 62
     7
100
AcDbTrace
 10
3.087276
 20
2.719784
 30
0.0
 11
2.551086
 21
2.945285
 31
0.0
 12
2.682628
 22
2.945285
 32
0.0
 13
2.682628
 23
2.945285
 33
0.0
  0
SOLID
  5
7C
100
AcDbEntity
  8
0
 62
     7
100
AcDbTrace
 10
3.087276
 20
2.719784
 30
0.0
 11
2.682628
 21
2.945285
 31
0.0
 12
2.774081
 22
2.926493
 32
0.0
 13
2.774081
 23
2.926493
 33
0.0
  0
SOLID
  5
7D
100
AcDbEntity
  8
0
 62
     7
100
AcDbTrace
 10
3.087276
 20
2.719784
 30
0.0
 11
2.774081
 21
2.926493
 31
0.0
 12
2.832961
 22
2.895173
 32
0.0
 13
2.832961
 23
2.895173
 33
0.0
  0
SOLID
  5
7E
100
AcDbEntity
  8
0
 62
     7
100
AcDbTrace
 10
3.087276
 20
2.719784
 30
0.0
 11
2.832961
 21
2.895173
 31
0.0
 12
2.876809
 22
2.851326
 32
0.0
 13
2.876809
 23
2.851326
 33
0.0
  0
SOLID
  5
7F
100
AcDbEntity
  8
0
 62
     7
100
AcDbTrace
 10
3.087276
 20
2.719784
 30
0.0
 11
2.876809
 21
2.851326
 31
0.0
 12
2.908128
 22
2.794951
 32
0.0
 13
2.908128
 23
2.794951
 33
0.0
  0
SOLID
  5
80
100
AcDbEntity
  8
0
 62
     7
100
AcDbTrace
 10
3.087276
 20
2.719784
 30
0.0
 11
2.908128
 21
2.794951
 31
0.0
 12
2.920656
 22
2.754862
 32
0.0
 13
2.920656
 23
2.754862
 33
0.0
  0
SOLID
  5
81
100
AcDbEntity
  8
0
 62
     7
100
AcDbTrace
 10
3.087276
 20
2.719784
 30
0.0
 11
2.920656
 21
2.754862
 31
0.0
 12
2.92692
 22
2.707256
 32
0.0
 13
2.92692
 23
2.707256
 33
0.0
  0
POLYLINE
  5
82
100
AcDbEntity
  8
0
  6
CONTINUOUS
 62
     7
100
AcDb2dPolyline
 66
     1
 10
0.0
 20
0.0
 30
0.0
 70
     1
  0
VERTEX
  5
83
100
AcDbEntity
  8
0
  6
CONTINUOUS
 62
     7
100
AcDbVertex
100
AcDb2dVertex
 10
2.92692
 20
2.707256
 30
0.0
  0
VERTEX
  5
84
100
AcDbEntity
  8
0
  6
CONTINUOUS
 62
     7
100
AcDbVertex
100
AcDb2dVertex
 10
3.087276
 20
2.719784
 30
0.0
  0
VERTEX
  5
85
100
AcDbEntity
  8
0
  6
CONTINUOUS
 62
     7
100
AcDbVertex
100
AcDb2dVertex
 10
3.077254
 20
2.782423
 30
0.0
  0
VERTEX
  5
86
100
AcDbEntity
  8
0
  6
CONTINUOUS
 62
     7
100
AcDbVertex
100
AcDb2dVertex
 10
3.058462
 20
2.845062
 30
0.0
  0
VERTEX
  5
87
100
AcDbEntity
  8
0
  6
CONTINUOUS
 62
     7
100
AcDbVertex
100
AcDb2dVertex
 10
3.033406
 20
2.895173
 30
0.0
  0
VERTEX
  5
88
100
AcDbEntity
  8
0
  6
CONTINUOUS
 62
     7
100
AcDbVertex
100
AcDb2dVertex
 10
3.008351
 20
2.932757
 30
0.0
  0
VERTEX
  5
89
100
AcDbEntity
  8
0
  6
CONTINUOUS
 62
     7
100
AcDbVertex
100
AcDb2dVertex
 10
2.964503
 20
2.982868
 30
0.0
  0
VERTEX
  5
8A
100
AcDbEntity
  8
0
  6
CONTINUOUS
 62
     7
100
AcDbVertex
100
AcDb2dVertex
 10
2.901864
 20
3.026715
 30
0.0
  0
VERTEX
  5
8B
100
AcDbEntity
  8
0
  6
CONTINUOUS
 62
     7
100
AcDbVertex
100
AcDb2dVertex
 10
2.839225
 20
3.055529
 30
0.0
  0
VERTEX
  5
8C
100
AcDbEntity
  8
0
  6
CONTINUOUS
 62
     7
100
AcDbVertex
100
AcDb2dVertex
 10
2.757795
 20
3.076827
 30
0.0
  0
VERTEX
  5
8D
100
AcDbEntity
  8
0
  6
CONTINUOUS
 62
     7
100
AcDbVertex
100
AcDb2dVertex
 10
2.6701
 20
3.089354
 30
0.0
  0
VERTEX
  5
8E
100
AcDbEntity
  8
0
  6
CONTINUOUS
 62
     7
100
AcDbVertex
100
AcDb2dVertex
 10
2.576141
 20
3.089354
 30
0.0
  0
VERTEX
  5
8F
100
AcDbEntity
  8
0
  6
CONTINUOUS
 62
     7
100
AcDbVertex
100
AcDb2dVertex
 10
2.482183
 20
3.076827
 30
0.0
  0
VERTEX
  5
90
100
AcDbEntity
  8
0
  6
CONTINUOUS
 62
     7
100
AcDbVertex
100
AcDb2dVertex
 10
2.394488
 20
3.051771
 30
0.0
  0
VERTEX
  5
91
100
AcDbEntity
  8
0
  6
CONTINUOUS
 62
     7
100
AcDbVertex
100
AcDb2dVertex
 10
2.313057
 20
3.007924
 30
0.0
  0
VERTEX
  5
92
100
AcDbEntity
  8
0
  6
CONTINUOUS
 62
     7
100
AcDbVertex
100
AcDb2dVertex
 10
2.244154
 20
2.939021
 30
0.0
  0
VERTEX
  5
93
100
AcDbEntity
  8
0
  6
CONTINUOUS
 62
     7
100
AcDbVertex
100
AcDb2dVertex
 10
2.197802
 20
2.851326
 30
0.0
  0
VERTEX
  5
94
100
AcDbEntity
  8
0
  6
CONTINUOUS
 62
     7
100
AcDbVertex
100
AcDb2dVertex
 10
2.181515
 20
2.776159
 30
0.0
  0
VERTEX
  5
95
100
AcDbEntity
  8
0
  6
CONTINUOUS
 62
     7
100
AcDbVertex
100
AcDb2dVertex
 10
2.185274
 20
2.694729
 30
0.0
  0
VERTEX
  5
96
100
AcDbEntity
  8
0
  6
CONTINUOUS
 62
     7
100
AcDbVertex
100
AcDb2dVertex
 10
2.206571
 20
2.625826
 30
0.0
  0
VERTEX
  5
97
100
AcDbEntity
  8
0
  6
CONTINUOUS
 62
     7
100
AcDbVertex
100
AcDb2dVertex
 10
2.250418
 20
2.559428
 30
0.0
  0
VERTEX
  5
98
100
AcDbEntity
  8
0
  6
CONTINUOUS
 62
     7
100
AcDbVertex
100
AcDb2dVertex
 10
2.319321
 20
2.500548
 30
0.0
  0
VERTEX
  5
99
100
AcDbEntity
  8
0
  6
CONTINUOUS
 62
     7
100
AcDbVertex
100
AcDb2dVertex
 10
2.407016
 20
2.4567
 30
0.0
  0
VERTEX
  5
9A
100
AcDbEntity
  8
0
  6
CONTINUOUS
 62
     7
100
AcDbVertex
100
AcDb2dVertex
 10
2.507238
 20
2.425381
 30
0.0
  0
VERTEX
  5
9B
100
AcDbEntity
  8
0
  6
CONTINUOUS
 62
     7
100
AcDbVertex
100
AcDb2dVertex
 10
2.632517
 20
2.394061
 30
0.0
  0
VERTEX
  5
9C
100
AcDbEntity
  8
0
  6
CONTINUOUS
 62
     7
100
AcDbVertex
100
AcDb2dVertex
 10
2.770322
 20
2.356478
 30
0.0
  0
VERTEX
  5
9D
100
AcDbEntity
  8
0
  6
CONTINUOUS
 62
     7
100
AcDbVertex
100
AcDb2dVertex
 10
2.858017
 20
2.325158
 30
0.0
  0
VERTEX
  5
9E
100
AcDbEntity
  8
0
  6
CONTINUOUS
 62
     7
100
AcDbVertex
100
AcDb2dVertex
 10
2.901864
 20
2.296344
 30
0.0
  0
VERTEX
  5
9F
100
AcDbEntity
  8
0
  6
CONTINUOUS
 62
     7
100
AcDbVertex
100
AcDb2dVertex
 10
2.933184
 20
2.265025
 30
0.0
  0
VERTEX
  5
A0
100
AcDbEntity
  8
0
  6
CONTINUOUS
 62
     7
100
AcDbVertex
100
AcDb2dVertex
 10
2.951976
 20
2.2312
 30
0.0
  0
VERTEX
  5
A1
100
AcDbEntity
  8
0
  6
CONTINUOUS
 62
     7
100
AcDbVertex
100
AcDb2dVertex
 10
2.964503
 20
2.187352
 30
0.0
  0
VERTEX
  5
A2
100
AcDbEntity
  8
0
  6
CONTINUOUS
 62
     7
100
AcDbVertex
100
AcDb2dVertex
 10
2.964503
 20
2.143505
 30
0.0
  0
VERTEX
  5
A3
100
AcDbEntity
  8
0
  6
CONTINUOUS
 62
     7
100
AcDbVertex
100
AcDb2dVertex
 10
2.94947
 20
2.08713
 30
0.0
  0
VERTEX
  5
A4
100
AcDbEntity
  8
0
  6
CONTINUOUS
 62
     7
100
AcDbVertex
100
AcDb2dVertex
 10
2.920656
 20
2.043283
 30
0.0
  0
VERTEX
  5
A5
100
AcDbEntity
  8
0
  6
CONTINUOUS
 62
     7
100
AcDbVertex
100
AcDb2dVertex
 10
2.864281
 20
1.999435
 30
0.0
  0
VERTEX
  5
A6
100
AcDbEntity
  8
0
  6
CONTINUOUS
 62
     7
100
AcDbVertex
100
AcDb2dVertex
 10
2.789114
 20
1.968116
 30
0.0
  0
VERTEX
  5
A7
100
AcDbEntity
  8
0
  6
CONTINUOUS
 62
     7
100
AcDbVertex
100
AcDb2dVertex
 10
2.713947
 20
1.953082
 30
0.0
  0
VERTEX
  5
A8
100
AcDbEntity
  8
0
  6
CONTINUOUS
 62
     7
100
AcDbVertex
100
AcDb2dVertex
 10
2.594933
 20
1.953082
 30
0.0
  0
VERTEX
  5
A9
100
AcDbEntity
  8
0
  6
CONTINUOUS
 62
     7
100
AcDbVertex
100
AcDb2dVertex
 10
2.513502
 20
1.968116
 30
0.0
  0
VERTEX
  5
AA
100
AcDbEntity
  8
0
  6
CONTINUOUS
 62
     7
100
AcDbVertex
100
AcDb2dVertex
 10
2.438336
 20
1.999435
 30
0.0
  0
VERTEX
  5
AB
100
AcDbEntity
  8
0
  6
CONTINUOUS
 62
     7
100
AcDbVertex
100
AcDb2dVertex
 10
2.373191
 20
2.043283
 30
0.0
  0
VERTEX
  5
AC
100
AcDbEntity
  8
0
  6
CONTINUOUS
 62
     7
100
AcDbVertex
100
AcDb2dVertex
 10
2.331849
 20
2.093394
 30
0.0
  0
VERTEX
  5
AD
100
AcDbEntity
  8
0
  6
CONTINUOUS
 62
     7
100
AcDbVertex
100
AcDb2dVertex
 10
2.303035
 20
2.156033
 30
0.0
  0
VERTEX
  5
AE
100
AcDbEntity
  8
0
  6
CONTINUOUS
 62
     7
100
AcDbVertex
100
AcDb2dVertex
 10
2.288002
 20
2.237464
 30
0.0
  0
VERTEX
  5
AF
100
AcDbEntity
  8
0
  6
CONTINUOUS
 62
     7
100
AcDbVertex
100
AcDb2dVertex
 10
2.131404
 20
2.224936
 30
0.0
  0
VERTEX
  5
B0
100
AcDbEntity
  8
0
  6
CONTINUOUS
 62
     7
100
AcDbVertex
100
AcDb2dVertex
 10
2.140174
 20
2.149769
 30
0.0
  0
VERTEX
  5
B1
100
AcDbEntity
  8
0
  6
CONTINUOUS
 62
     7
100
AcDbVertex
100
AcDb2dVertex
 10
2.162724
 20
2.074602
 30
0.0
  0
VERTEX
  5
B2
100
AcDbEntity
  8
0
  6
CONTINUOUS
 62
     7
100
AcDbVertex
100
AcDb2dVertex
 10
2.197802
 20
2.005699
 30
0.0
  0
VERTEX
  5
B3
100
AcDbEntity
  8
0
  6
CONTINUOUS
 62
     7
100
AcDbVertex
100
AcDb2dVertex
 10
2.256682
 20
1.936796
 30
0.0
  0
VERTEX
  5
B4
100
AcDbEntity
  8
0
  6
CONTINUOUS
 62
     7
100
AcDbVertex
100
AcDb2dVertex
 10
2.331849
 20
1.880421
 30
0.0
  0
VERTEX
  5
B5
100
AcDbEntity
  8
0
  6
CONTINUOUS
 62
     7
100
AcDbVertex
100
AcDb2dVertex
 10
2.419544
 20
1.840332
 30
0.0
  0
VERTEX
  5
B6
100
AcDbEntity
  8
0
  6
CONTINUOUS
 62
     7
100
AcDbVertex
100
AcDb2dVertex
 10
2.513502
 20
1.817782
 30
0.0
  0
VERTEX
  5
B7
100
AcDbEntity
  8
0
  6
CONTINUOUS
 62
     7
100
AcDbVertex
100
AcDb2dVertex
 10
2.613725
 20
1.80776
 30
0.0
  0
VERTEX
  5
B8
100
AcDbEntity
  8
0
  6
CONTINUOUS
 62
     7
100
AcDbVertex
100
AcDb2dVertex
 10
2.707683
 20
1.80776
 30
0.0
  0
VERTEX
  5
B9
100
AcDbEntity
  8
0
  6
CONTINUOUS
 62
     7
100
AcDbVertex
100
AcDb2dVertex
 10
2.81417
 20
1.824046
 30
0.0
  0
VERTEX
  5
BA
100
AcDbEntity
  8
0
  6
CONTINUOUS
 62
     7
100
AcDbVertex
100
AcDb2dVertex
 10
2.914392
 20
1.861629
 30
0.0
  0
VERTEX
  5
BB
100
AcDbEntity
  8
0
  6
CONTINUOUS
 62
     7
100
AcDbVertex
100
AcDb2dVertex
 10
3.002087
 20
1.918004
 30
0.0
  0
VERTEX
  5
BC
100
AcDbEntity
  8
0
  6
CONTINUOUS
 62
     7
100
AcDbVertex
100
AcDb2dVertex
 10
3.064726
 20
1.993171
 30
0.0
  0
VERTEX
  5
BD
100
AcDbEntity
  8
0
  6
CONTINUOUS
 62
     7
100
AcDbVertex
100
AcDb2dVertex
 10
3.108573
 20
2.08713
 30
0.0
  0
VERTEX
  5
BE
100
AcDbEntity
  8
0
  6
CONTINUOUS
 62
     7
100
AcDbVertex
100
AcDb2dVertex
 10
3.121101
 20
2.162297
 30
0.0
  0
VERTEX
  5
BF
100
AcDbEntity
  8
0
  6
CONTINUOUS
 62
     7
100
AcDbVertex
100
AcDb2dVertex
 10
3.114837
 20
2.237464
 30
0.0
  0
VERTEX
  5
C0
100
AcDbEntity
  8
0
  6
CONTINUOUS
 62
     7
100
AcDbVertex
100
AcDb2dVertex
 10
3.089782
 20
2.318894
 30
0.0
  0
VERTEX
  5
C1
100
AcDbEntity
  8
0
  6
CONTINUOUS
 62
     7
100
AcDbVertex
100
AcDb2dVertex
 10
3.042176
 20
2.387797
 30
0.0
  0
VERTEX
  5
C2
100
AcDbEntity
  8
0
  6
CONTINUOUS
 62
     7
100
AcDbVertex
100
AcDb2dVertex
 10
2.983295
 20
2.437908
 30
0.0
  0
VERTEX
  5
C3
100
AcDbEntity
  8
0
  6
CONTINUOUS
 62
     7
100
AcDbVertex
100
AcDb2dVertex
 10
2.901864
 20
2.481756
 30
0.0
  0
VERTEX
  5
C4
100
AcDbEntity
  8
0
  6
CONTINUOUS
 62
     7
100
AcDbVertex
100
AcDb2dVertex
 10
2.81417
 20
2.513075
 30
0.0
  0
VERTEX
  5
C5
100
AcDbEntity
  8
0
  6
CONTINUOUS
 62
     7
100
AcDbVertex
100
AcDb2dVertex
 10
2.63878
 20
2.556923
 30
0.0
  0
VERTEX
  5
C6
100
AcDbEntity
  8
0
  6
CONTINUOUS
 62
     7
100
AcDbVertex
100
AcDb2dVertex
 10
2.519766
 20
2.588242
 30
0.0
  0
VERTEX
  5
C7
100
AcDbEntity
  8
0
  6
CONTINUOUS
 62
     7
100
AcDbVertex
100
AcDb2dVertex
 10
2.463391
 20
2.607034
 30
0.0
  0
VERTEX
  5
C8
100
AcDbEntity
  8
0
  6
CONTINUOUS
 62
     7
100
AcDbVertex
100
AcDb2dVertex
 10
2.419544
 20
2.625826
 30
0.0
  0
VERTEX
  5
C9
100
AcDbEntity
  8
0
  6
CONTINUOUS
 62
     7
100
AcDbVertex
100
AcDb2dVertex
 10
2.388224
 20
2.644617
 30
0.0
  0
VERTEX
  5
CA
100
AcDbEntity
  8
0
  6
CONTINUOUS
 62
     7
100
AcDbVertex
100
AcDb2dVertex
 10
2.363169
 20
2.669673
 30
0.0
  0
VERTEX
  5
CB
100
AcDbEntity
  8
0
  6
CONTINUOUS
 62
     7
100
AcDbVertex
100
AcDb2dVertex
 10
2.344377
 20
2.704751
 30
0.0
  0
VERTEX
  5
CC
100
AcDbEntity
  8
0
  6
CONTINUOUS
 62
     7
100
AcDbVertex
100
AcDb2dVertex
 10
2.335607
 20
2.738576
 30
0.0
  0
VERTEX
  5
CD
100
AcDbEntity
  8
0
  6
CONTINUOUS
 62
     7
100
AcDbVertex
100
AcDb2dVertex
 10
2.335607
 20
2.769895
 30
0.0
  0
VERTEX
  5
CE
100
AcDbEntity
  8
0
  6
CONTINUOUS
 62
     7
100
AcDbVertex
100
AcDb2dVertex
 10
2.344377
 20
2.813743
 30
0.0
  0
VERTEX
  5
CF
100
AcDbEntity
  8
0
  6
CONTINUOUS
 62
     7
100
AcDbVertex
100
AcDb2dVertex
 10
2.363169
 20
2.851326
 30
0.0
  0
VERTEX
  5
D0
100
AcDbEntity
  8
0
  6
CONTINUOUS
 62
     7
100
AcDbVertex
100
AcDb2dVertex
 10
2.408269
 20
2.896426
 30
0.0
  0
VERTEX
  5
D1
100
AcDbEntity
  8
0
  6
CONTINUOUS
 62
     7
100
AcDbVertex
100
AcDb2dVertex
 10
2.465897
 20
2.926493
 30
0.0
  0
VERTEX
  5
D2
100
AcDbEntity
  8
0
  6
CONTINUOUS
 62
     7
100
AcDbVertex
100
AcDb2dVertex
 10
2.551086
 20
2.945285
 30
0.0
  0
VERTEX
  5
D3
100
AcDbEntity
  8
0
  6
CONTINUOUS
 62
     7
100
AcDbVertex
100
AcDb2dVertex
 10
2.682628
 20
2.945285
 30
0.0
  0
VERTEX
  5
D4
100
AcDbEntity
  8
0
  6
CONTINUOUS
 62
     7
100
AcDbVertex
100
AcDb2dVertex
 10
2.774081
 20
2.926493
 30
0.0
  0
VERTEX
  5
D5
100
AcDbEntity
  8
0
  6
CONTINUOUS
 62
     7
100
AcDbVertex
100
AcDb2dVertex
 10
2.832961
 20
2.895173
 30
0.0
  0
VERTEX
  5
D6
100
AcDbEntity
  8
0
  6
CONTINUOUS
 62
     7
100
AcDbVertex
100
AcDb2dVertex
 10
2.876809
 20
2.851326
 30
0.0
  0
VERTEX
  5
D7
100
AcDbEntity
  8
0
  6
CONTINUOUS
 62
     7
100
AcDbVertex
100
AcDb2dVertex
 10
2.908128
 20
2.794951
 30
0.0
  0
VERTEX
  5
D8
100
AcDbEntity
  8
0
  6
CONTINUOUS
 62
     7
100
AcDbVertex
100
AcDb2dVertex
 10
2.920656
 20
2.754862
 30
0.0
  0
SEQEND
  5
D9
100
AcDbEntity
  8
0
  6
CONTINUOUS
 62
     7
  0
SOLID
  5
DA
100
AcDbEntity
  8
0
 62
     7
100
AcDbTrace
 10
3.354431
 20
1.824046
 30
0.0
 11
3.517293
 21
1.824046
 31
0.0
 12
3.517293
 22
2.412853
 32
0.0
 13
3.517293
 23
2.412853
 33
0.0
  0
SOLID
  5
DB
100
AcDbEntity
  8
0
 62
     7
100
AcDbTrace
 10
3.354431
 20
1.824046
 30
0.0
 11
3.517293
 21
2.412853
 31
0.0
 12
4.168739
 22
2.412853
 32
0.0
 13
4.168739
 23
2.412853
 33
0.0
  0
SOLID
  5
DC
100
AcDbEntity
  8
0
 62
     7
100
AcDbTrace
 10
3.354431
 20
1.824046
 30
0.0
 11
4.168739
 21
2.412853
 31
0.0
 12
4.168739
 22
1.824046
 32
0.0
 13
4.168739
 23
1.824046
 33
0.0
  0
SOLID
  5
DD
100
AcDbEntity
  8
0
 62
     7
100
AcDbTrace
 10
3.354431
 20
1.824046
 30
0.0
 11
4.168739
 21
1.824046
 31
0.0
 12
4.331601
 22
1.824046
 32
0.0
 13
4.331601
 23
1.824046
 33
0.0
  0
SOLID
  5
DE
100
AcDbEntity
  8
0
 62
     7
100
AcDbTrace
 10
3.354431
 20
1.824046
 30
0.0
 11
4.331601
 21
1.824046
 31
0.0
 12
4.331601
 22
3.070563
 32
0.0
 13
4.331601
 23
3.070563
 33
0.0
  0
SOLID
  5
DF
100
AcDbEntity
  8
0
 62
     7
100
AcDbTrace
 10
3.354431
 20
1.824046
 30
0.0
 11
4.331601
 21
3.070563
 31
0.0
 12
4.168739
 22
3.070563
 32
0.0
 13
4.168739
 23
3.070563
 33
0.0
  0
SOLID
  5
E0
100
AcDbEntity
  8
0
 62
     7
100
AcDbTrace
 10
3.354431
 20
1.824046
 30
0.0
 11
4.168739
 21
3.070563
 31
0.0
 12
4.168739
 22
2.559428
 32
0.0
 13
4.168739
 23
2.559428
 33
0.0
  0
SOLID
  5
E1
100
AcDbEntity
  8
0
 62
     7
100
AcDbTrace
 10
3.354431
 20
1.824046
 30
0.0
 11
4.168739
 21
2.559428
 31
0.0
 12
3.517293
 22
2.559428
 32
0.0
 13
3.517293
 23
2.559428
 33
0.0
  0
SOLID
  5
E2
100
AcDbEntity
  8
0
 62
     7
100
AcDbTrace
 10
3.354431
 20
1.824046
 30
0.0
 11
3.517293
 21
2.559428
 31
0.0
 12
3.517293
 22
3.070563
 32
0.0
 13
3.517293
 23
3.070563
 33
0.0
  0
SOLID
  5
E3
100
AcDbEntity
  8
0
 62
     7
100
AcDbTrace
 10
3.354431
 20
1.824046
 30
0.0
 11
3.517293
 21
3.070563
 31
0.0
 12
3.354431
 22
3.070563
 32
0.0
 13
3.354431
 23
3.070563
 33
0.0
  0
POLYLINE
  5
E4
100
AcDbEntity
  8
0
  6
CONTINUOUS
 62
     7
100
AcDb2dPolyline
 66
     1
 10
0.0
 20
0.0
 30
0.0
 70
     1
  0
VERTEX
  5
E5
100
AcDbEntity
  8
0
  6
CONTINUOUS
 62
     7
100
AcDbVertex
100
AcDb2dVertex
 10
3.354431
 20
3.070563
 30
0.0
  0
VERTEX
  5
E6
100
AcDbEntity
  8
0
  6
CONTINUOUS
 62
     7
100
AcDbVertex
100
AcDb2dVertex
 10
3.354431
 20
1.824046
 30
0.0
  0
VERTEX
  5
E7
100
AcDbEntity
  8
0
  6
CONTINUOUS
 62
     7
100
AcDbVertex
100
AcDb2dVertex
 10
3.517293
 20
1.824046
 30
0.0
  0
VERTEX
  5
E8
100
AcDbEntity
  8
0
  6
CONTINUOUS
 62
     7
100
AcDbVertex
100
AcDb2dVertex
 10
3.517293
 20
2.412853
 30
0.0
  0
VERTEX
  5
E9
100
AcDbEntity
  8
0
  6
CONTINUOUS
 62
     7
100
AcDbVertex
100
AcDb2dVertex
 10
4.168739
 20
2.412853
 30
0.0
  0
VERTEX
  5
EA
100
AcDbEntity
  8
0
  6
CONTINUOUS
 62
     7
100
AcDbVertex
100
AcDb2dVertex
 10
4.168739
 20
1.824046
 30
0.0
  0
VERTEX
  5
EB
100
AcDbEntity
  8
0
  6
CONTINUOUS
 62
     7
100
AcDbVertex
100
AcDb2dVertex
 10
4.331601
 20
1.824046
 30
0.0
  0
VERTEX
  5
EC
100
AcDbEntity
  8
0
  6
CONTINUOUS
 62
     7
100
AcDbVertex
100
AcDb2dVertex
 10
4.331601
 20
3.070563
 30
0.0
  0
VERTEX
  5
ED
100
AcDbEntity
  8
0
  6
CONTINUOUS
 62
     7
100
AcDbVertex
100
AcDb2dVertex
 10
4.168739
 20
3.070563
 30
0.0
  0
VERTEX
  5
EE
100
AcDbEntity
  8
0
  6
CONTINUOUS
 62
     7
100
AcDbVertex
100
AcDb2dVertex
 10
4.168739
 20
2.559428
 30
0.0
  0
VERTEX
  5
EF
100
AcDbEntity
  8
0
  6
CONTINUOUS
 62
     7
100
AcDbVertex
100
AcDb2dVertex
 10
3.517293
 20
2.559428
 30
0.0
  0
VERTEX
  5
F0
100
AcDbEntity
  8
0
  6
CONTINUOUS
 62
     7
100
AcDbVertex
100
AcDb2dVertex
 10
3.517293
 20
3.070563
 30
0.0
  0
SEQEND
  5
F1
100
AcDbEntity
  8
0
  6
CONTINUOUS
 62
     7
  0
SOLID
  5
F2
100
AcDbEntity
  8
0
 62
     7
100
AcDbTrace
 10
4.00298
 20
7.010714
 30
0.0
 11
4.00298
 21
6.482295
 31
0.0
 12
4.171517
 22
6.482295
 32
0.0
 13
4.171517
 23
6.482295
 33
0.0
  0
SOLID
  5
F3
100
AcDbEntity
  8
0
 62
     7
100
AcDbTrace
 10
4.00298
 20
7.010714
 30
0.0
 11
4.171517
 21
6.482295
 31
0.0
 12
4.171517
 22
7.010714
 32
0.0
 13
4.171517
 23
7.010714
 33
0.0
  0
SOLID
  5
F4
100
AcDbEntity
  8
0
 62
     7
100
AcDbTrace
 10
4.00298
 20
7.010714
 30
0.0
 11
4.171517
 21
7.010714
 31
0.0
 12
4.67079
 22
7.739349
 32
0.0
 13
4.67079
 23
7.739349
 33
0.0
  0
SOLID
  5
F5
100
AcDbEntity
  8
0
 62
     7
100
AcDbTrace
 10
4.00298
 20
7.010714
 30
0.0
 11
4.67079
 21
7.739349
 31
0.0
 12
4.478177
 22
7.739349
 32
0.0
 13
4.478177
 23
7.739349
 33
0.0
  0
SOLID
  5
F6
100
AcDbEntity
  8
0
 62
     7
100
AcDbTrace
 10
4.00298
 20
7.010714
 30
0.0
 11
4.478177
 21
7.739349
 31
0.0
 12
4.09802
 22
7.150105
 32
0.0
 13
4.09802
 23
7.150105
 33
0.0
  0
SOLID
  5
F7
100
AcDbEntity
  8
0
 62
     7
100
AcDbTrace
 10
4.00298
 20
7.010714
 30
0.0
 11
4.09802
 21
7.150105
 31
0.0
 12
3.724198
 22
7.739349
 32
0.0
 13
3.724198
 23
7.739349
 33
0.0
  0
SOLID
  5
F8
100
AcDbEntity
  8
0
 62
     7
100
AcDbTrace
 10
4.00298
 20
7.010714
 30
0.0
 11
3.724198
 21
7.739349
 31
0.0
 12
3.521448
 22
7.739349
 32
0.0
 13
3.521448
 23
7.739349
 33
0.0
  0
POLYLINE
  5
F9
100
AcDbEntity
  8
0
  6
CONTINUOUS
 62
     7
100
AcDb2dPolyline
 66
     1
 10
0.0
 20
0.0
 30
0.0
 70
     1
  0
VERTEX
  5
FA
100
AcDbEntity
  8
0
  6
CONTINUOUS
 62
     7
100
AcDbVertex
100
AcDb2dVertex
 10
3.521448
 20
7.739349
 30
0.0
  0
VERTEX
  5
FB
100
AcDbEntity
  8
0
  6
CONTINUOUS
 62
     7
100
AcDbVertex
100
AcDb2dVertex
 10
4.00298
 20
7.010714
 30
0.0
  0
VERTEX
  5
FC
100
AcDbEntity
  8
0
  6
CONTINUOUS
 62
     7
100
AcDbVertex
100
AcDb2dVertex
 10
4.00298
 20
6.482295
 30
0.0
  0
VERTEX
  5
FD
100
AcDbEntity
  8
0
  6
CONTINUOUS
 62
     7
100
AcDbVertex
100
AcDb2dVertex
 10
4.171517
 20
6.482295
 30
0.0
  0
VERTEX
  5
FE
100
AcDbEntity
  8
0
  6
CONTINUOUS
 62
     7
100
AcDbVertex
100
AcDb2dVertex
 10
4.171517
 20
7.010714
 30
0.0
  0
VERTEX
  5
FF
100
AcDbEntity
  8
0
  6
CONTINUOUS
 62
     7
100
AcDbVertex
100
AcDb2dVertex
 10
4.67079
 20
7.739349
 30
0.0
  0
VERTEX
  5
100
100
AcDbEntity
  8
0
  6
CONTINUOUS
 62
     7
100
AcDbVertex
100
AcDb2dVertex
 10
4.478177
 20
7.739349
 30
0.0
  0
VERTEX
  5
101
100
AcDbEntity
  8
0
  6
CONTINUOUS
 62
     7
100
AcDbVertex
100
AcDb2dVertex
 10
4.09802
 20
7.150105
 30
0.0
  0
VERTEX
  5
102
100
AcDbEntity
  8
0
  6
CONTINUOUS
 62
     7
100
AcDbVertex
100
AcDb2dVertex
 10
3.724198
 20
7.739349
 30
0.0
  0
SEQEND
  5
103
100
AcDbEntity
  8
0
  6
CONTINUOUS
 62
     7
  0
SOLID
  5
104
100
AcDbEntity
  8
0
 62
     7
100
AcDbTrace
 10
3.385858
 20
7.384535
 30
0.0
 11
3.375721
 21
7.447895
 31
0.0
 12
3.356713
 22
7.511254
 32
0.0
 13
3.356713
 23
7.511254
 33
0.0
  0
SOLID
  5
105
100
AcDbEntity
  8
0
 62
     7
100
AcDbTrace
 10
3.385858
 20
7.384535
 30
0.0
 11
3.356713
 21
7.511254
 31
0.0
 12
3.331369
 22
7.561942
 32
0.0
 13
3.331369
 23
7.561942
 33
0.0
  0
SOLID
  5
106
100
AcDbEntity
  8
0
 62
     7
100
AcDbTrace
 10
3.385858
 20
7.384535
 30
0.0
 11
3.331369
 21
7.561942
 31
0.0
 12
3.306025
 22
7.599958
 32
0.0
 13
3.306025
 23
7.599958
 33
0.0
  0
SOLID
  5
107
100
AcDbEntity
  8
0
 62
     7
100
AcDbTrace
 10
3.385858
 20
7.384535
 30
0.0
 11
3.306025
 21
7.599958
 31
0.0
 12
3.261674
 22
7.650645
 32
0.0
 13
3.261674
 23
7.650645
 33
0.0
  0
SOLID
  5
108
100
AcDbEntity
  8
0
 62
     7
100
AcDbTrace
 10
3.385858
 20
7.384535
 30
0.0
 11
3.261674
 21
7.650645
 31
0.0
 12
3.198314
 22
7.694997
 32
0.0
 13
3.198314
 23
7.694997
 33
0.0
  0
SOLID
  5
109
100
AcDbEntity
  8
0
 62
     7
100
AcDbTrace
 10
3.385858
 20
7.384535
 30
0.0
 11
3.198314
 21
7.694997
 31
0.0
 12
3.134955
 22
7.724142
 32
0.0
 13
3.134955
 23
7.724142
 33
0.0
  0
SOLID
  5
10A
100
AcDbEntity
  8
0
 62
     7
100
AcDbTrace
 10
3.385858
 20
7.384535
 30
0.0
 11
3.134955
 21
7.724142
 31
0.0
 12
3.052587
 22
7.745685
 32
0.0
 13
3.052587
 23
7.745685
 33
0.0
  0
SOLID
  5
10B
100
AcDbEntity
  8
0
 62
     7
100
AcDbTrace
 10
3.385858
 20
7.384535
 30
0.0
 11
3.052587
 21
7.745685
 31
0.0
 12
2.963884
 22
7.758357
 32
0.0
 13
2.963884
 23
7.758357
 33
0.0
  0
SOLID
  5
10C
100
AcDbEntity
  8
0
 62
     7
100
AcDbTrace
 10
3.385858
 20
7.384535
 30
0.0
 11
2.963884
 21
7.758357
 31
0.0
 12
2.868844
 22
7.758357
 32
0.0
 13
2.868844
 23
7.758357
 33
0.0
  0
SOLID
  5
10D
100
AcDbEntity
  8
0
 62
     7
100
AcDbTrace
 10
3.385858
 20
7.384535
 30
0.0
 11
2.868844
 21
7.758357
 31
0.0
 12
2.773805
 22
7.745685
 32
0.0
 13
2.773805
 23
7.745685
 33
0.0
  0
SOLID
  5
10E
100
AcDbEntity
  8
0
 62
     7
100
AcDbTrace
 10
3.385858
 20
7.384535
 30
0.0
 11
2.773805
 21
7.745685
 31
0.0
 12
2.685102
 22
7.720341
 32
0.0
 13
2.685102
 23
7.720341
 33
0.0
  0
SOLID
  5
10F
100
AcDbEntity
  8
0
 62
     7
100
AcDbTrace
 10
3.385858
 20
7.384535
 30
0.0
 11
2.685102
 21
7.720341
 31
0.0
 12
2.602734
 22
7.675989
 32
0.0
 13
2.602734
 23
7.675989
 33
0.0
  0
SOLID
  5
110
100
AcDbEntity
  8
0
 62
     7
100
AcDbTrace
 10
3.385858
 20
7.384535
 30
0.0
 11
2.602734
 21
7.675989
 31
0.0
 12
2.533039
 22
7.606294
 32
0.0
 13
2.533039
 23
7.606294
 33
0.0
  0
SOLID
  5
111
100
AcDbEntity
  8
0
 62
     7
100
AcDbTrace
 10
3.385858
 20
7.384535
 30
0.0
 11
2.533039
 21
7.606294
 31
0.0
 12
2.486153
 22
7.51759
 32
0.0
 13
2.486153
 23
7.51759
 33
0.0
  0
SOLID
  5
112
100
AcDbEntity
  8
0
 62
     7
100
AcDbTrace
 10
3.385858
 20
7.384535
 30
0.0
 11
2.486153
 21
7.51759
 31
0.0
 12
2.469679
 22
7.441559
 32
0.0
 13
2.469679
 23
7.441559
 33
0.0
  0
SOLID
  5
113
100
AcDbEntity
  8
0
 62
     7
100
AcDbTrace
 10
3.385858
 20
7.384535
 30
0.0
 11
2.469679
 21
7.441559
 31
0.0
 12
2.473481
 22
7.359191
 32
0.0
 13
2.473481
 23
7.359191
 33
0.0
  0
SOLID
  5
114
100
AcDbEntity
  8
0
 62
     7
100
AcDbTrace
 10
3.385858
 20
7.384535
 30
0.0
 11
2.473481
 21
7.359191
 31
0.0
 12
2.495023
 22
7.289496
 32
0.0
 13
2.495023
 23
7.289496
 33
0.0
  0
SOLID
  5
115
100
AcDbEntity
  8
0
 62
     7
100
AcDbTrace
 10
3.385858
 20
7.384535
 30
0.0
 11
2.495023
 21
7.289496
 31
0.0
 12
2.539375
 22
7.222335
 32
0.0
 13
2.539375
 23
7.222335
 33
0.0
  0
SOLID
  5
116
100
AcDbEntity
  8
0
 62
     7
100
AcDbTrace
 10
3.385858
 20
7.384535
 30
0.0
 11
2.539375
 21
7.222335
 31
0.0
 12
2.60907
 22
7.162777
 32
0.0
 13
2.60907
 23
7.162777
 33
0.0
  0
SOLID
  5
117
100
AcDbEntity
  8
0
 62
     7
100
AcDbTrace
 10
3.385858
 20
7.384535
 30
0.0
 11
2.60907
 21
7.162777
 31
0.0
 12
2.697774
 22
7.118425
 32
0.0
 13
2.697774
 23
7.118425
 33
0.0
  0
SOLID
  5
118
100
AcDbEntity
  8
0
 62
     7
100
AcDbTrace
 10
3.385858
 20
7.384535
 30
0.0
 11
2.697774
 21
7.118425
 31
0.0
 12
2.799149
 22
7.086745
 32
0.0
 13
2.799149
 23
7.086745
 33
0.0
  0
SOLID
  5
119
100
AcDbEntity
  8
0
 62
     7
100
AcDbTrace
 10
3.385858
 20
7.384535
 30
0.0
 11
2.799149
 21
7.086745
 31
0.0
 12
2.925868
 22
7.055065
 32
0.0
 13
2.925868
 23
7.055065
 33
0.0
  0
SOLID
  5
11A
100
AcDbEntity
  8
0
 62
     7
100
AcDbTrace
 10
3.385858
 20
7.384535
 30
0.0
 11
2.925868
 21
7.055065
 31
0.0
 12
3.065259
 22
7.01705
 32
0.0
 13
3.065259
 23
7.01705
 33
0.0
  0
SOLID
  5
11B
100
AcDbEntity
  8
0
 62
     7
100
AcDbTrace
 10
3.385858
 20
7.384535
 30
0.0
 11
3.065259
 21
7.01705
 31
0.0
 12
3.153962
 22
6.98537
 32
0.0
 13
3.153962
 23
6.98537
 33
0.0
  0
SOLID
  5
11C
100
AcDbEntity
  8
0
 62
     7
100
AcDbTrace
 10
3.385858
 20
7.384535
 30
0.0
 11
3.153962
 21
6.98537
 31
0.0
 12
3.198314
 22
6.956225
 32
0.0
 13
3.198314
 23
6.956225
 33
0.0
  0
SOLID
  5
11D
100
AcDbEntity
  8
0
 62
     7
100
AcDbTrace
 10
3.385858
 20
7.384535
 30
0.0
 11
3.198314
 21
6.956225
 31
0.0
 12
3.229994
 22
6.924545
 32
0.0
 13
3.229994
 23
6.924545
 33
0.0
  0
SOLID
  5
11E
100
AcDbEntity
  8
0
 62
     7
100
AcDbTrace
 10
3.385858
 20
7.384535
 30
0.0
 11
3.229994
 21
6.924545
 31
0.0
 12
3.249002
 22
6.890331
 32
0.0
 13
3.249002
 23
6.890331
 33
0.0
  0
SOLID
  5
11F
100
AcDbEntity
  8
0
 62
     7
100
AcDbTrace
 10
3.385858
 20
7.384535
 30
0.0
 11
3.249002
 21
6.890331
 31
0.0
 12
3.261674
 22
6.845979
 32
0.0
 13
3.261674
 23
6.845979
 33
0.0
  0
SOLID
  5
120
100
AcDbEntity
  8
0
 62
     7
100
AcDbTrace
 10
3.385858
 20
7.384535
 30
0.0
 11
3.261674
 21
6.845979
 31
0.0
 12
3.261674
 22
6.801627
 32
0.0
 13
3.261674
 23
6.801627
 33
0.0
  0
SOLID
  5
121
100
AcDbEntity
  8
0
 62
     7
100
AcDbTrace
 10
3.385858
 20
7.384535
 30
0.0
 11
3.261674
 21
6.801627
 31
0.0
 12
3.246467
 22
6.744604
 32
0.0
 13
3.246467
 23
6.744604
 33
0.0
  0
SOLID
  5
122
100
AcDbEntity
  8
0
 62
     7
100
AcDbTrace
 10
3.385858
 20
7.384535
 30
0.0
 11
3.246467
 21
6.744604
 31
0.0
 12
3.217322
 22
6.700252
 32
0.0
 13
3.217322
 23
6.700252
 33
0.0
  0
SOLID
  5
123
100
AcDbEntity
  8
0
 62
     7
100
AcDbTrace
 10
3.385858
 20
7.384535
 30
0.0
 11
3.217322
 21
6.700252
 31
0.0
 12
3.160298
 22
6.6559
 32
0.0
 13
3.160298
 23
6.6559
 33
0.0
  0
SOLID
  5
124
100
AcDbEntity
  8
0
 62
     7
100
AcDbTrace
 10
3.385858
 20
7.384535
 30
0.0
 11
3.160298
 21
6.6559
 31
0.0
 12
3.084267
 22
6.62422
 32
0.0
 13
3.084267
 23
6.62422
 33
0.0
  0
SOLID
  5
125
100
AcDbEntity
  8
0
 62
     7
100
AcDbTrace
 10
3.385858
 20
7.384535
 30
0.0
 11
3.084267
 21
6.62422
 31
0.0
 12
3.008235
 22
6.609014
 32
0.0
 13
3.008235
 23
6.609014
 33
0.0
  0
SOLID
  5
126
100
AcDbEntity
  8
0
 62
     7
100
AcDbTrace
 10
3.385858
 20
7.384535
 30
0.0
 11
3.008235
 21
6.609014
 31
0.0
 12
2.887852
 22
6.609014
 32
0.0
 13
2.887852
 23
6.609014
 33
0.0
  0
SOLID
  5
127
100
AcDbEntity
  8
0
 62
     7
100
AcDbTrace
 10
3.385858
 20
7.384535
 30
0.0
 11
2.887852
 21
6.609014
 31
0.0
 12
2.805485
 22
6.62422
 32
0.0
 13
2.805485
 23
6.62422
 33
0.0
  0
SOLID
  5
128
100
AcDbEntity
  8
0
 62
     7
100
AcDbTrace
 10
3.385858
 20
7.384535
 30
0.0
 11
2.805485
 21
6.62422
 31
0.0
 12
2.729453
 22
6.6559
 32
0.0
 13
2.729453
 23
6.6559
 33
0.0
  0
SOLID
  5
129
100
AcDbEntity
  8
0
 62
     7
100
AcDbTrace
 10
3.385858
 20
7.384535
 30
0.0
 11
2.729453
 21
6.6559
 31
0.0
 12
2.663559
 22
6.700252
 32
0.0
 13
2.663559
 23
6.700252
 33
0.0
  0
SOLID
  5
12A
100
AcDbEntity
  8
0
 62
     7
100
AcDbTrace
 10
3.385858
 20
7.384535
 30
0.0
 11
2.663559
 21
6.700252
 31
0.0
 12
2.621742
 22
6.75094
 32
0.0
 13
2.621742
 23
6.75094
 33
0.0
  0
SOLID
  5
12B
100
AcDbEntity
  8
0
 62
     7
100
AcDbTrace
 10
3.385858
 20
7.384535
 30
0.0
 11
2.621742
 21
6.75094
 31
0.0
 12
2.592597
 22
6.814299
 32
0.0
 13
2.592597
 23
6.814299
 33
0.0
  0
SOLID
  5
12C
100
AcDbEntity
  8
0
 62
     7
100
AcDbTrace
 10
3.385858
 20
7.384535
 30
0.0
 11
2.592597
 21
6.814299
 31
0.0
 12
2.57739
 22
6.896667
 32
0.0
 13
2.57739
 23
6.896667
 33
0.0
  0
SOLID
  5
12D
100
AcDbEntity
  8
0
 62
     7
100
AcDbTrace
 10
3.385858
 20
7.384535
 30
0.0
 11
2.57739
 21
6.896667
 31
0.0
 12
2.418991
 22
6.883995
 32
0.0
 13
2.418991
 23
6.883995
 33
0.0
  0
SOLID
  5
12E
100
AcDbEntity
  8
0
 62
     7
100
AcDbTrace
 10
3.385858
 20
7.384535
 30
0.0
 11
2.418991
 21
6.883995
 31
0.0
 12
2.427862
 22
6.807963
 32
0.0
 13
2.427862
 23
6.807963
 33
0.0
  0
SOLID
  5
12F
100
AcDbEntity
  8
0
 62
     7
100
AcDbTrace
 10
3.385858
 20
7.384535
 30
0.0
 11
2.427862
 21
6.807963
 31
0.0
 12
2.450671
 22
6.731932
 32
0.0
 13
2.450671
 23
6.731932
 33
0.0
  0
SOLID
  5
130
100
AcDbEntity
  8
0
 62
     7
100
AcDbTrace
 10
3.385858
 20
7.384535
 30
0.0
 11
2.450671
 21
6.731932
 31
0.0
 12
2.486153
 22
6.662236
 32
0.0
 13
2.486153
 23
6.662236
 33
0.0
  0
SOLID
  5
131
100
AcDbEntity
  8
0
 62
     7
100
AcDbTrace
 10
3.385858
 20
7.384535
 30
0.0
 11
2.486153
 21
6.662236
 31
0.0
 12
2.545711
 22
6.592541
 32
0.0
 13
2.545711
 23
6.592541
 33
0.0
  0
SOLID
  5
132
100
AcDbEntity
  8
0
 62
     7
100
AcDbTrace
 10
3.385858
 20
7.384535
 30
0.0
 11
2.545711
 21
6.592541
 31
0.0
 12
2.621742
 22
6.535517
 32
0.0
 13
2.621742
 23
6.535517
 33
0.0
  0
SOLID
  5
133
100
AcDbEntity
  8
0
 62
     7
100
AcDbTrace
 10
3.385858
 20
7.384535
 30
0.0
 11
2.621742
 21
6.535517
 31
0.0
 12
2.710445
 22
6.494967
 32
0.0
 13
2.710445
 23
6.494967
 33
0.0
  0
SOLID
  5
134
100
AcDbEntity
  8
0
 62
     7
100
AcDbTrace
 10
3.385858
 20
7.384535
 30
0.0
 11
2.710445
 21
6.494967
 31
0.0
 12
2.805485
 22
6.472158
 32
0.0
 13
2.805485
 23
6.472158
 33
0.0
  0
SOLID
  5
135
100
AcDbEntity
  8
0
 62
     7
100
AcDbTrace
 10
3.385858
 20
7.384535
 30
0.0
 11
2.805485
 21
6.472158
 31
0.0
 12
2.90686
 22
6.46202
 32
0.0
 13
2.90686
 23
6.46202
 33
0.0
  0
SOLID
  5
136
100
AcDbEntity
  8
0
 62
     7
100
AcDbTrace
 10
3.385858
 20
7.384535
 30
0.0
 11
2.90686
 21
6.46202
 31
0.0
 12
3.001899
 22
6.46202
 32
0.0
 13
3.001899
 23
6.46202
 33
0.0
  0
SOLID
  5
137
100
AcDbEntity
  8
0
 62
     7
100
AcDbTrace
 10
3.385858
 20
7.384535
 30
0.0
 11
3.001899
 21
6.46202
 31
0.0
 12
3.109611
 22
6.478493
 32
0.0
 13
3.109611
 23
6.478493
 33
0.0
  0
SOLID
  5
138
100
AcDbEntity
  8
0
 62
     7
100
AcDbTrace
 10
3.385858
 20
7.384535
 30
0.0
 11
3.109611
 21
6.478493
 31
0.0
 12
3.210986
 22
6.516509
 32
0.0
 13
3.210986
 23
6.516509
 33
0.0
  0
SOLID
  5
139
100
AcDbEntity
  8
0
 62
     7
100
AcDbTrace
 10
3.385858
 20
7.384535
 30
0.0
 11
3.210986
 21
6.516509
 31
0.0
 12
3.299689
 22
6.573533
 32
0.0
 13
3.299689
 23
6.573533
 33
0.0
  0
SOLID
  5
13A
100
AcDbEntity
  8
0
 62
     7
100
AcDbTrace
 10
3.385858
 20
7.384535
 30
0.0
 11
3.299689
 21
6.573533
 31
0.0
 12
3.363049
 22
6.649564
 32
0.0
 13
3.363049
 23
6.649564
 33
0.0
  0
SOLID
  5
13B
100
AcDbEntity
  8
0
 62
     7
100
AcDbTrace
 10
3.385858
 20
7.384535
 30
0.0
 11
3.363049
 21
6.649564
 31
0.0
 12
3.407401
 22
6.744604
 32
0.0
 13
3.407401
 23
6.744604
 33
0.0
  0
SOLID
  5
13C
100
AcDbEntity
  8
0
 62
     7
100
AcDbTrace
 10
3.385858
 20
7.384535
 30
0.0
 11
3.407401
 21
6.744604
 31
0.0
 12
3.420073
 22
6.820635
 32
0.0
 13
3.420073
 23
6.820635
 33
0.0
  0
SOLID
  5
13D
100
AcDbEntity
  8
0
 62
     7
100
AcDbTrace
 10
3.385858
 20
7.384535
 30
0.0
 11
3.420073
 21
6.820635
 31
0.0
 12
3.413737
 22
6.896667
 32
0.0
 13
3.413737
 23
6.896667
 33
0.0
  0
SOLID
  5
13E
100
AcDbEntity
  8
0
 62
     7
100
AcDbTrace
 10
3.385858
 20
7.384535
 30
0.0
 11
3.413737
 21
6.896667
 31
0.0
 12
3.388393
 22
6.979034
 32
0.0
 13
3.388393
 23
6.979034
 33
0.0
  0
SOLID
  5
13F
100
AcDbEntity
  8
0
 62
     7
100
AcDbTrace
 10
3.385858
 20
7.384535
 30
0.0
 11
3.388393
 21
6.979034
 31
0.0
 12
3.340239
 22
7.04873
 32
0.0
 13
3.340239
 23
7.04873
 33
0.0
  0
SOLID
  5
140
100
AcDbEntity
  8
0
 62
     7
100
AcDbTrace
 10
3.385858
 20
7.384535
 30
0.0
 11
3.340239
 21
7.04873
 31
0.0
 12
3.280681
 22
7.099417
 32
0.0
 13
3.280681
 23
7.099417
 33
0.0
  0
SOLID
  5
141
100
AcDbEntity
  8
0
 62
     7
100
AcDbTrace
 10
3.385858
 20
7.384535
 30
0.0
 11
3.280681
 21
7.099417
 31
0.0
 12
3.198314
 22
7.143769
 32
0.0
 13
3.198314
 23
7.143769
 33
0.0
  0
SOLID
  5
142
100
AcDbEntity
  8
0
 62
     7
100
AcDbTrace
 10
3.385858
 20
7.384535
 30
0.0
 11
3.198314
 21
7.143769
 31
0.0
 12
3.109611
 22
7.175449
 32
0.0
 13
3.109611
 23
7.175449
 33
0.0
  0
SOLID
  5
143
100
AcDbEntity
  8
0
 62
     7
100
AcDbTrace
 10
3.385858
 20
7.384535
 30
0.0
 11
3.109611
 21
7.175449
 31
0.0
 12
2.932204
 22
7.2198
 32
0.0
 13
2.932204
 23
7.2198
 33
0.0
  0
SOLID
  5
144
100
AcDbEntity
  8
0
 62
     7
100
AcDbTrace
 10
3.385858
 20
7.384535
 30
0.0
 11
2.932204
 21
7.2198
 31
0.0
 12
2.811821
 22
7.25148
 32
0.0
 13
2.811821
 23
7.25148
 33
0.0
  0
SOLID
  5
145
100
AcDbEntity
  8
0
 62
     7
100
AcDbTrace
 10
3.385858
 20
7.384535
 30
0.0
 11
2.811821
 21
7.25148
 31
0.0
 12
2.754797
 22
7.270488
 32
0.0
 13
2.754797
 23
7.270488
 33
0.0
  0
SOLID
  5
146
100
AcDbEntity
  8
0
 62
     7
100
AcDbTrace
 10
3.385858
 20
7.384535
 30
0.0
 11
2.754797
 21
7.270488
 31
0.0
 12
2.710445
 22
7.289496
 32
0.0
 13
2.710445
 23
7.289496
 33
0.0
  0
SOLID
  5
147
100
AcDbEntity
  8
0
 62
     7
100
AcDbTrace
 10
3.385858
 20
7.384535
 30
0.0
 11
2.710445
 21
7.289496
 31
0.0
 12
2.678766
 22
7.308504
 32
0.0
 13
2.678766
 23
7.308504
 33
0.0
  0
SOLID
  5
148
100
AcDbEntity
  8
0
 62
     7
100
AcDbTrace
 10
3.385858
 20
7.384535
 30
0.0
 11
2.678766
 21
7.308504
 31
0.0
 12
2.653422
 22
7.333848
 32
0.0
 13
2.653422
 23
7.333848
 33
0.0
  0
SOLID
  5
149
100
AcDbEntity
  8
0
 62
     7
100
AcDbTrace
 10
3.385858
 20
7.384535
 30
0.0
 11
2.653422
 21
7.333848
 31
0.0
 12
2.634414
 22
7.369329
 32
0.0
 13
2.634414
 23
7.369329
 33
0.0
  0
SOLID
  5
14A
100
AcDbEntity
  8
0
 62
     7
100
AcDbTrace
 10
3.385858
 20
7.384535
 30
0.0
 11
2.634414
 21
7.369329
 31
0.0
 12
2.625544
 22
7.403543
 32
0.0
 13
2.625544
 23
7.403543
 33
0.0
  0
SOLID
  5
14B
100
AcDbEntity
  8
0
 62
     7
100
AcDbTrace
 10
3.385858
 20
7.384535
 30
0.0
 11
2.625544
 21
7.403543
 31
0.0
 12
2.625544
 22
7.435223
 32
0.0
 13
2.625544
 23
7.435223
 33
0.0
  0
SOLID
  5
14C
100
AcDbEntity
  8
0
 62
     7
100
AcDbTrace
 10
3.385858
 20
7.384535
 30
0.0
 11
2.625544
 21
7.435223
 31
0.0
 12
2.634414
 22
7.479575
 32
0.0
 13
2.634414
 23
7.479575
 33
0.0
  0
SOLID
  5
14D
100
AcDbEntity
  8
0
 62
     7
100
AcDbTrace
 10
3.385858
 20
7.384535
 30
0.0
 11
2.634414
 21
7.479575
 31
0.0
 12
2.653422
 22
7.51759
 32
0.0
 13
2.653422
 23
7.51759
 33
0.0
  0
SOLID
  5
14E
100
AcDbEntity
  8
0
 62
     7
100
AcDbTrace
 10
3.385858
 20
7.384535
 30
0.0
 11
2.653422
 21
7.51759
 31
0.0
 12
2.699041
 22
7.563209
 32
0.0
 13
2.699041
 23
7.563209
 33
0.0
  0
SOLID
  5
14F
100
AcDbEntity
  8
0
 62
     7
100
AcDbTrace
 10
3.385858
 20
7.384535
 30
0.0
 11
2.699041
 21
7.563209
 31
0.0
 12
2.757332
 22
7.593622
 32
0.0
 13
2.757332
 23
7.593622
 33
0.0
  0
SOLID
  5
150
100
AcDbEntity
  8
0
 62
     7
100
AcDbTrace
 10
3.385858
 20
7.384535
 30
0.0
 11
2.757332
 21
7.593622
 31
0.0
 12
2.843501
 22
7.61263
 32
0.0
 13
2.843501
 23
7.61263
 33
0.0
  0
SOLID
  5
151
100
AcDbEntity
  8
0
 62
     7
100
AcDbTrace
 10
3.385858
 20
7.384535
 30
0.0
 11
2.843501
 21
7.61263
 31
0.0
 12
2.976556
 22
7.61263
 32
0.0
 13
2.976556
 23
7.61263
 33
0.0
  0
SOLID
  5
152
100
AcDbEntity
  8
0
 62
     7
100
AcDbTrace
 10
3.385858
 20
7.384535
 30
0.0
 11
2.976556
 21
7.61263
 31
0.0
 12
3.069061
 22
7.593622
 32
0.0
 13
3.069061
 23
7.593622
 33
0.0
  0
SOLID
  5
153
100
AcDbEntity
  8
0
 62
     7
100
AcDbTrace
 10
3.385858
 20
7.384535
 30
0.0
 11
3.069061
 21
7.593622
 31
0.0
 12
3.128619
 22
7.561942
 32
0.0
 13
3.128619
 23
7.561942
 33
0.0
  0
SOLID
  5
154
100
AcDbEntity
  8
0
 62
     7
100
AcDbTrace
 10
3.385858
 20
7.384535
 30
0.0
 11
3.128619
 21
7.561942
 31
0.0
 12
3.17297
 22
7.51759
 32
0.0
 13
3.17297
 23
7.51759
 33
0.0
  0
SOLID
  5
155
100
AcDbEntity
  8
0
 62
     7
100
AcDbTrace
 10
3.385858
 20
7.384535
 30
0.0
 11
3.17297
 21
7.51759
 31
0.0
 12
3.20465
 22
7.460567
 32
0.0
 13
3.20465
 23
7.460567
 33
0.0
  0
SOLID
  5
156
100
AcDbEntity
  8
0
 62
     7
100
AcDbTrace
 10
3.385858
 20
7.384535
 30
0.0
 11
3.20465
 21
7.460567
 31
0.0
 12
3.217322
 22
7.420017
 32
0.0
 13
3.217322
 23
7.420017
 33
0.0
  0
SOLID
  5
157
100
AcDbEntity
  8
0
 62
     7
100
AcDbTrace
 10
3.385858
 20
7.384535
 30
0.0
 11
3.217322
 21
7.420017
 31
0.0
 12
3.223658
 22
7.371863
 32
0.0
 13
3.223658
 23
7.371863
 33
0.0
  0
POLYLINE
  5
158
100
AcDbEntity
  8
0
  6
CONTINUOUS
 62
     7
100
AcDb2dPolyline
 66
     1
 10
0.0
 20
0.0
 30
0.0
 70
     1
  0
VERTEX
  5
159
100
AcDbEntity
  8
0
  6
CONTINUOUS
 62
     7
100
AcDbVertex
100
AcDb2dVertex
 10
3.223658
 20
7.371863
 30
0.0
  0
VERTEX
  5
15A
100
AcDbEntity
  8
0
  6
CONTINUOUS
 62
     7
100
AcDbVertex
100
AcDb2dVertex
 10
3.385858
 20
7.384535
 30
0.0
  0
VERTEX
  5
15B
100
AcDbEntity
  8
0
  6
CONTINUOUS
 62
     7
100
AcDbVertex
100
AcDb2dVertex
 10
3.375721
 20
7.447895
 30
0.0
  0
VERTEX
  5
15C
100
AcDbEntity
  8
0
  6
CONTINUOUS
 62
     7
100
AcDbVertex
100
AcDb2dVertex
 10
3.356713
 20
7.511254
 30
0.0
  0
VERTEX
  5
15D
100
AcDbEntity
  8
0
  6
CONTINUOUS
 62
     7
100
AcDbVertex
100
AcDb2dVertex
 10
3.331369
 20
7.561942
 30
0.0
  0
VERTEX
  5
15E
100
AcDbEntity
  8
0
  6
CONTINUOUS
 62
     7
100
AcDbVertex
100
AcDb2dVertex
 10
3.306025
 20
7.599958
 30
0.0
  0
VERTEX
  5
15F
100
AcDbEntity
  8
0
  6
CONTINUOUS
 62
     7
100
AcDbVertex
100
AcDb2dVertex
 10
3.261674
 20
7.650645
 30
0.0
  0
VERTEX
  5
160
100
AcDbEntity
  8
0
  6
CONTINUOUS
 62
     7
100
AcDbVertex
100
AcDb2dVertex
 10
3.198314
 20
7.694997
 30
0.0
  0
VERTEX
  5
161
100
AcDbEntity
  8
0
  6
CONTINUOUS
 62
     7
100
AcDbVertex
100
AcDb2dVertex
 10
3.134955
 20
7.724142
 30
0.0
  0
VERTEX
  5
162
100
AcDbEntity
  8
0
  6
CONTINUOUS
 62
     7
100
AcDbVertex
100
AcDb2dVertex
 10
3.052587
 20
7.745685
 30
0.0
  0
VERTEX
  5
163
100
AcDbEntity
  8
0
  6
CONTINUOUS
 62
     7
100
AcDbVertex
100
AcDb2dVertex
 10
2.963884
 20
7.758357
 30
0.0
  0
VERTEX
  5
164
100
AcDbEntity
  8
0
  6
CONTINUOUS
 62
     7
100
AcDbVertex
100
AcDb2dVertex
 10
2.868844
 20
7.758357
 30
0.0
  0
VERTEX
  5
165
100
AcDbEntity
  8
0
  6
CONTINUOUS
 62
     7
100
AcDbVertex
100
AcDb2dVertex
 10
2.773805
 20
7.745685
 30
0.0
  0
VERTEX
  5
166
100
AcDbEntity
  8
0
  6
CONTINUOUS
 62
     7
100
AcDbVertex
100
AcDb2dVertex
 10
2.685102
 20
7.720341
 30
0.0
  0
VERTEX
  5
167
100
AcDbEntity
  8
0
  6
CONTINUOUS
 62
     7
100
AcDbVertex
100
AcDb2dVertex
 10
2.602734
 20
7.675989
 30
0.0
  0
VERTEX
  5
168
100
AcDbEntity
  8
0
  6
CONTINUOUS
 62
     7
100
AcDbVertex
100
AcDb2dVertex
 10
2.533039
 20
7.606294
 30
0.0
  0
VERTEX
  5
169
100
AcDbEntity
  8
0
  6
CONTINUOUS
 62
     7
100
AcDbVertex
100
AcDb2dVertex
 10
2.486153
 20
7.51759
 30
0.0
  0
VERTEX
  5
16A
100
AcDbEntity
  8
0
  6
CONTINUOUS
 62
     7
100
AcDbVertex
100
AcDb2dVertex
 10
2.469679
 20
7.441559
 30
0.0
  0
VERTEX
  5
16B
100
AcDbEntity
  8
0
  6
CONTINUOUS
 62
     7
100
AcDbVertex
100
AcDb2dVertex
 10
2.473481
 20
7.359191
 30
0.0
  0
VERTEX
  5
16C
100
AcDbEntity
  8
0
  6
CONTINUOUS
 62
     7
100
AcDbVertex
100
AcDb2dVertex
 10
2.495023
 20
7.289496
 30
0.0
  0
VERTEX
  5
16D
100
AcDbEntity
  8
0
  6
CONTINUOUS
 62
     7
100
AcDbVertex
100
AcDb2dVertex
 10
2.539375
 20
7.222335
 30
0.0
  0
VERTEX
  5
16E
100
AcDbEntity
  8
0
  6
CONTINUOUS
 62
     7
100
AcDbVertex
100
AcDb2dVertex
 10
2.60907
 20
7.162777
 30
0.0
  0
VERTEX
  5
16F
100
AcDbEntity
  8
0
  6
CONTINUOUS
 62
     7
100
AcDbVertex
100
AcDb2dVertex
 10
2.697774
 20
7.118425
 30
0.0
  0
VERTEX
  5
170
100
AcDbEntity
  8
0
  6
CONTINUOUS
 62
     7
100
AcDbVertex
100
AcDb2dVertex
 10
2.799149
 20
7.086745
 30
0.0
  0
VERTEX
  5
171
100
AcDbEntity
  8
0
  6
CONTINUOUS
 62
     7
100
AcDbVertex
100
AcDb2dVertex
 10
2.925868
 20
7.055065
 30
0.0
  0
VERTEX
  5
172
100
AcDbEntity
  8
0
  6
CONTINUOUS
 62
     7
100
AcDbVertex
100
AcDb2dVertex
 10
3.065259
 20
7.01705
 30
0.0
  0
VERTEX
  5
173
100
AcDbEntity
  8
0
  6
CONTINUOUS
 62
     7
100
AcDbVertex
100
AcDb2dVertex
 10
3.153962
 20
6.98537
 30
0.0
  0
VERTEX
  5
174
100
AcDbEntity
  8
0
  6
CONTINUOUS
 62
     7
100
AcDbVertex
100
AcDb2dVertex
 10
3.198314
 20
6.956225
 30
0.0
  0
VERTEX
  5
175
100
AcDbEntity
  8
0
  6
CONTINUOUS
 62
     7
100
AcDbVertex
100
AcDb2dVertex
 10
3.229994
 20
6.924545
 30
0.0
  0
VERTEX
  5
176
100
AcDbEntity
  8
0
  6
CONTINUOUS
 62
     7
100
AcDbVertex
100
AcDb2dVertex
 10
3.249002
 20
6.890331
 30
0.0
  0
VERTEX
  5
177
100
AcDbEntity
  8
0
  6
CONTINUOUS
 62
     7
100
AcDbVertex
100
AcDb2dVertex
 10
3.261674
 20
6.845979
 30
0.0
  0
VERTEX
  5
178
100
AcDbEntity
  8
0
  6
CONTINUOUS
 62
     7
100
AcDbVertex
100
AcDb2dVertex
 10
3.261674
 20
6.801627
 30
0.0
  0
VERTEX
  5
179
100
AcDbEntity
  8
0
  6
CONTINUOUS
 62
     7
100
AcDbVertex
100
AcDb2dVertex
 10
3.246467
 20
6.744604
 30
0.0
  0
VERTEX
  5
17A
100
AcDbEntity
  8
0
  6
CONTINUOUS
 62
     7
100
AcDbVertex
100
AcDb2dVertex
 10
3.217322
 20
6.700252
 30
0.0
  0
VERTEX
  5
17B
100
AcDbEntity
  8
0
  6
CONTINUOUS
 62
     7
100
AcDbVertex
100
AcDb2dVertex
 10
3.160298
 20
6.6559
 30
0.0
  0
VERTEX
  5
17C
100
AcDbEntity
  8
0
  6
CONTINUOUS
 62
     7
100
AcDbVertex
100
AcDb2dVertex
 10
3.084267
 20
6.62422
 30
0.0
  0
VERTEX
  5
17D
100
AcDbEntity
  8
0
  6
CONTINUOUS
 62
     7
100
AcDbVertex
100
AcDb2dVertex
 10
3.008235
 20
6.609014
 30
0.0
  0
VERTEX
  5
17E
100
AcDbEntity
  8
0
  6
CONTINUOUS
 62
     7
100
AcDbVertex
100
AcDb2dVertex
 10
2.887852
 20
6.609014
 30
0.0
  0
VERTEX
  5
17F
100
AcDbEntity
  8
0
  6
CONTINUOUS
 62
     7
100
AcDbVertex
100
AcDb2dVertex
 10
2.805485
 20
6.62422
 30
0.0
  0
VERTEX
  5
180
100
AcDbEntity
  8
0
  6
CONTINUOUS
 62
     7
100
AcDbVertex
100
AcDb2dVertex
 10
2.729453
 20
6.6559
 30
0.0
  0
VERTEX
  5
181
100
AcDbEntity
  8
0
  6
CONTINUOUS
 62
     7
100
AcDbVertex
100
AcDb2dVertex
 10
2.663559
 20
6.700252
 30
0.0
  0
VERTEX
  5
182
100
AcDbEntity
  8
0
  6
CONTINUOUS
 62
     7
100
AcDbVertex
100
AcDb2dVertex
 10
2.621742
 20
6.75094
 30
0.0
  0
VERTEX
  5
183
100
AcDbEntity
  8
0
  6
CONTINUOUS
 62
     7
100
AcDbVertex
100
AcDb2dVertex
 10
2.592597
 20
6.814299
 30
0.0
  0
VERTEX
  5
184
100
AcDbEntity
  8
0
  6
CONTINUOUS
 62
     7
100
AcDbVertex
100
AcDb2dVertex
 10
2.57739
 20
6.896667
 30
0.0
  0
VERTEX
  5
185
100
AcDbEntity
  8
0
  6
CONTINUOUS
 62
     7
100
AcDbVertex
100
AcDb2dVertex
 10
2.418991
 20
6.883995
 30
0.0
  0
VERTEX
  5
186
100
AcDbEntity
  8
0
  6
CONTINUOUS
 62
     7
100
AcDbVertex
100
AcDb2dVertex
 10
2.427862
 20
6.807963
 30
0.0
  0
VERTEX
  5
187
100
AcDbEntity
  8
0
  6
CONTINUOUS
 62
     7
100
AcDbVertex
100
AcDb2dVertex
 10
2.450671
 20
6.731932
 30
0.0
  0
VERTEX
  5
188
100
AcDbEntity
  8
0
  6
CONTINUOUS
 62
     7
100
AcDbVertex
100
AcDb2dVertex
 10
2.486153
 20
6.662236
 30
0.0
  0
VERTEX
  5
189
100
AcDbEntity
  8
0
  6
CONTINUOUS
 62
     7
100
AcDbVertex
100
AcDb2dVertex
 10
2.545711
 20
6.592541
 30
0.0
  0
VERTEX
  5
18A
100
AcDbEntity
  8
0
  6
CONTINUOUS
 62
     7
100
AcDbVertex
100
AcDb2dVertex
 10
2.621742
 20
6.535517
 30
0.0
  0
VERTEX
  5
18B
100
AcDbEntity
  8
0
  6
CONTINUOUS
 62
     7
100
AcDbVertex
100
AcDb2dVertex
 10
2.710445
 20
6.494967
 30
0.0
  0
VERTEX
  5
18C
100
AcDbEntity
  8
0
  6
CONTINUOUS
 62
     7
100
AcDbVertex
100
AcDb2dVertex
 10
2.805485
 20
6.472158
 30
0.0
  0
VERTEX
  5
18D
100
AcDbEntity
  8
0
  6
CONTINUOUS
 62
     7
100
AcDbVertex
100
AcDb2dVertex
 10
2.90686
 20
6.46202
 30
0.0
  0
VERTEX
  5
18E
100
AcDbEntity
  8
0
  6
CONTINUOUS
 62
     7
100
AcDbVertex
100
AcDb2dVertex
 10
3.001899
 20
6.46202
 30
0.0
  0
VERTEX
  5
18F
100
AcDbEntity
  8
0
  6
CONTINUOUS
 62
     7
100
AcDbVertex
100
AcDb2dVertex
 10
3.109611
 20
6.478493
 30
0.0
  0
VERTEX
  5
190
100
AcDbEntity
  8
0
  6
CONTINUOUS
 62
     7
100
AcDbVertex
100
AcDb2dVertex
 10
3.210986
 20
6.516509
 30
0.0
  0
VERTEX
  5
191
100
AcDbEntity
  8
0
  6
CONTINUOUS
 62
     7
100
AcDbVertex
100
AcDb2dVertex
 10
3.299689
 20
6.573533
 30
0.0
  0
VERTEX
  5
192
100
AcDbEntity
  8
0
  6
CONTINUOUS
 62
     7
100
AcDbVertex
100
AcDb2dVertex
 10
3.363049
 20
6.649564
 30
0.0
  0
VERTEX
  5
193
100
AcDbEntity
  8
0
  6
CONTINUOUS
 62
     7
100
AcDbVertex
100
AcDb2dVertex
 10
3.407401
 20
6.744604
 30
0.0
  0
VERTEX
  5
194
100
AcDbEntity
  8
0
  6
CONTINUOUS
 62
     7
100
AcDbVertex
100
AcDb2dVertex
 10
3.420073
 20
6.820635
 30
0.0
  0
VERTEX
  5
195
100
AcDbEntity
  8
0
  6
CONTINUOUS
 62
     7
100
AcDbVertex
100
AcDb2dVertex
 10
3.413737
 20
6.896667
 30
0.0
  0
VERTEX
  5
196
100
AcDbEntity
  8
0
  6
CONTINUOUS
 62
     7
100
AcDbVertex
100
AcDb2dVertex
 10
3.388393
 20
6.979034
 30
0.0
  0
VERTEX
  5
197
100
AcDbEntity
  8
0
  6
CONTINUOUS
 62
     7
100
AcDbVertex
100
AcDb2dVertex
 10
3.340239
 20
7.04873
 30
0.0
  0
VERTEX
  5
198
100
AcDbEntity
  8
0
  6
CONTINUOUS
 62
     7
100
AcDbVertex
100
AcDb2dVertex
 10
3.280681
 20
7.099417
 30
0.0
  0
VERTEX
  5
199
100
AcDbEntity
  8
0
  6
CONTINUOUS
 62
     7
100
AcDbVertex
100
AcDb2dVertex
 10
3.198314
 20
7.143769
 30
0.0
  0
VERTEX
  5
19A
100
AcDbEntity
  8
0
  6
CONTINUOUS
 62
     7
100
AcDbVertex
100
AcDb2dVertex
 10
3.109611
 20
7.175449
 30
0.0
  0
VERTEX
  5
19B
100
AcDbEntity
  8
0
  6
CONTINUOUS
 62
     7
100
AcDbVertex
100
AcDb2dVertex
 10
2.932204
 20
7.2198
 30
0.0
  0
VERTEX
  5
19C
100
AcDbEntity
  8
0
  6
CONTINUOUS
 62
     7
100
AcDbVertex
100
AcDb2dVertex
 10
2.811821
 20
7.25148
 30
0.0
  0
VERTEX
  5
19D
100
AcDbEntity
  8
0
  6
CONTINUOUS
 62
     7
100
AcDbVertex
100
AcDb2dVertex
 10
2.754797
 20
7.270488
 30
0.0
  0
VERTEX
  5
19E
100
AcDbEntity
  8
0
  6
CONTINUOUS
 62
     7
100
AcDbVertex
100
AcDb2dVertex
 10
2.710445
 20
7.289496
 30
0.0
  0
VERTEX
  5
19F
100
AcDbEntity
  8
0
  6
CONTINUOUS
 62
     7
100
AcDbVertex
100
AcDb2dVertex
 10
2.678766
 20
7.308504
 30
0.0
  0
VERTEX
  5
1A0
100
AcDbEntity
  8
0
  6
CONTINUOUS
 62
     7
100
AcDbVertex
100
AcDb2dVertex
 10
2.653422
 20
7.333848
 30
0.0
  0
VERTEX
  5
1A1
100
AcDbEntity
  8
0
  6
CONTINUOUS
 62
     7
100
AcDbVertex
100
AcDb2dVertex
 10
2.634414
 20
7.369329
 30
0.0
  0
VERTEX
  5
1A2
100
AcDbEntity
  8
0
  6
CONTINUOUS
 62
     7
100
AcDbVertex
100
AcDb2dVertex
 10
2.625544
 20
7.403543
 30
0.0
  0
VERTEX
  5
1A3
100
AcDbEntity
  8
0
  6
CONTINUOUS
 62
     7
100
AcDbVertex
100
AcDb2dVertex
 10
2.625544
 20
7.435223
 30
0.0
  0
VERTEX
  5
1A4
100
AcDbEntity
  8
0
  6
CONTINUOUS
 62
     7
100
AcDbVertex
100
AcDb2dVertex
 10
2.634414
 20
7.479575
 30
0.0
  0
VERTEX
  5
1A5
100
AcDbEntity
  8
0
  6
CONTINUOUS
 62
     7
100
AcDbVertex
100
AcDb2dVertex
 10
2.653422
 20
7.51759
 30
0.0
  0
VERTEX
  5
1A6
100
AcDbEntity
  8
0
  6
CONTINUOUS
 62
     7
100
AcDbVertex
100
AcDb2dVertex
 10
2.699041
 20
7.563209
 30
0.0
  0
VERTEX
  5
1A7
100
AcDbEntity
  8
0
  6
CONTINUOUS
 62
     7
100
AcDbVertex
100
AcDb2dVertex
 10
2.757332
 20
7.593622
 30
0.0
  0
VERTEX
  5
1A8
100
AcDbEntity
  8
0
  6
CONTINUOUS
 62
     7
100
AcDbVertex
100
AcDb2dVertex
 10
2.843501
 20
7.61263
 30
0.0
  0
VERTEX
  5
1A9
100
AcDbEntity
  8
0
  6
CONTINUOUS
 62
     7
100
AcDbVertex
100
AcDb2dVertex
 10
2.976556
 20
7.61263
 30
0.0
  0
VERTEX
  5
1AA
100
AcDbEntity
  8
0
  6
CONTINUOUS
 62
     7
100
AcDbVertex
100
AcDb2dVertex
 10
3.069061
 20
7.593622
 30
0.0
  0
VERTEX
  5
1AB
100
AcDbEntity
  8
0
  6
CONTINUOUS
 62
     7
100
AcDbVertex
100
AcDb2dVertex
 10
3.128619
 20
7.561942
 30
0.0
  0
VERTEX
  5
1AC
100
AcDbEntity
  8
0
  6
CONTINUOUS
 62
     7
100
AcDbVertex
100
AcDb2dVertex
 10
3.17297
 20
7.51759
 30
0.0
  0
VERTEX
  5
1AD
100
AcDbEntity
  8
0
  6
CONTINUOUS
 62
     7
100
AcDbVertex
100
AcDb2dVertex
 10
3.20465
 20
7.460567
 30
0.0
  0
VERTEX
  5
1AE
100
AcDbEntity
  8
0
  6
CONTINUOUS
 62
     7
100
AcDbVertex
100
AcDb2dVertex
 10
3.217322
 20
7.420017
 30
0.0
  0
SEQEND
  5
1AF
100
AcDbEntity
  8
0
  6
CONTINUOUS
 62
     7
  0
SOLID
  5
1B0
100
AcDbEntity
  8
0
 62
     7
100
AcDbTrace
 10
4.822853
 20
7.739349
 30
0.0
 11
4.99139
 21
7.739349
 31
0.0
 12
5.654131
 22
6.748405
 32
0.0
 13
5.654131
 23
6.748405
 33
0.0
  0
SOLID
  5
1B1
100
AcDbEntity
  8
0
 62
     7
100
AcDbTrace
 10
4.822853
 20
7.739349
 30
0.0
 11
5.654131
 21
6.748405
 31
0.0
 12
5.654131
 22
7.739349
 32
0.0
 13
5.654131
 23
7.739349
 33
0.0
  0
SOLID
  5
1B2
100
AcDbEntity
  8
0
 62
     7
100
AcDbTrace
 10
4.822853
 20
7.739349
 30
0.0
 11
5.654131
 21
7.739349
 31
0.0
 12
5.811262
 22
7.739349
 32
0.0
 13
5.811262
 23
7.739349
 33
0.0
  0
SOLID
  5
1B3
100
AcDbEntity
  8
0
 62
     7
100
AcDbTrace
 10
4.822853
 20
7.739349
 30
0.0
 11
5.811262
 21
7.739349
 31
0.0
 12
5.811262
 22
6.482295
 32
0.0
 13
5.811262
 23
6.482295
 33
0.0
  0
SOLID
  5
1B4
100
AcDbEntity
  8
0
 62
     7
100
AcDbTrace
 10
4.822853
 20
7.739349
 30
0.0
 11
5.811262
 21
6.482295
 31
0.0
 12
5.643993
 22
6.482295
 32
0.0
 13
5.643993
 23
6.482295
 33
0.0
  0
SOLID
  5
1B5
100
AcDbEntity
  8
0
 62
     7
100
AcDbTrace
 10
4.822853
 20
7.739349
 30
0.0
 11
5.643993
 21
6.482295
 31
0.0
 12
4.978718
 22
7.473239
 32
0.0
 13
4.978718
 23
7.473239
 33
0.0
  0
SOLID
  5
1B6
100
AcDbEntity
  8
0
 62
     7
100
AcDbTrace
 10
4.822853
 20
7.739349
 30
0.0
 11
4.978718
 21
7.473239
 31
0.0
 12
4.978718
 22
6.482295
 32
0.0
 13
4.978718
 23
6.482295
 33
0.0
  0
SOLID
  5
1B7
100
AcDbEntity
  8
0
 62
     7
100
AcDbTrace
 10
4.822853
 20
7.739349
 30
0.0
 11
4.978718
 21
6.482295
 31
0.0
 12
4.822853
 22
6.482295
 32
0.0
 13
4.822853
 23
6.482295
 33
0.0
  0
POLYLINE
  5
1B8
100
AcDbEntity
  8
0
  6
CONTINUOUS
 62
     7
100
AcDb2dPolyline
 66
     1
 10
0.0
 20
0.0
 30
0.0
 70
     1
  0
VERTEX
  5
1B9
100
AcDbEntity
  8
0
  6
CONTINUOUS
 62
     7
100
AcDbVertex
100
AcDb2dVertex
 10
4.822853
 20
6.482295
 30
0.0
  0
VERTEX
  5
1BA
100
AcDbEntity
  8
0
  6
CONTINUOUS
 62
     7
100
AcDbVertex
100
AcDb2dVertex
 10
4.822853
 20
7.739349
 30
0.0
  0
VERTEX
  5
1BB
100
AcDbEntity
  8
0
  6
CONTINUOUS
 62
     7
100
AcDbVertex
100
AcDb2dVertex
 10
4.99139
 20
7.739349
 30
0.0
  0
VERTEX
  5
1BC
100
AcDbEntity
  8
0
  6
CONTINUOUS
 62
     7
100
AcDbVertex
100
AcDb2dVertex
 10
5.654131
 20
6.748405
 30
0.0
  0
VERTEX
  5
1BD
100
AcDbEntity
  8
0
  6
CONTINUOUS
 62
     7
100
AcDbVertex
100
AcDb2dVertex
 10
5.654131
 20
7.739349
 30
0.0
  0
VERTEX
  5
1BE
100
AcDbEntity
  8
0
  6
CONTINUOUS
 62
     7
100
AcDbVertex
100
AcDb2dVertex
 10
5.811262
 20
7.739349
 30
0.0
  0
VERTEX
  5
1BF
100
AcDbEntity
  8
0
  6
CONTINUOUS
 62
     7
100
AcDbVertex
100
AcDb2dVertex
 10
5.811262
 20
6.482295
 30
0.0
  0
VERTEX
  5
1C0
100
AcDbEntity
  8
0
  6
CONTINUOUS
 62
     7
100
AcDbVertex
100
AcDb2dVertex
 10
5.643993
 20
6.482295
 30
0.0
  0
VERTEX
  5
1C1
100
AcDbEntity
  8
0
  6
CONTINUOUS
 62
     7
100
AcDbVertex
100
AcDb2dVertex
 10
4.978718
 20
7.473239
 30
0.0
  0
VERTEX
  5
1C2
100
AcDbEntity
  8
0
  6
CONTINUOUS
 62
     7
100
AcDbVertex
100
AcDb2dVertex
 10
4.978718
 20
6.482295
 30
0.0
  0
SEQEND
  5
1C3
100
AcDbEntity
  8
0
  6
CONTINUOUS
 62
     7
  0
POLYLINE
  5
1C4
100
AcDbEntity
  8
0
  6
CONTINUOUS
 62
     7
100
AcDb2dPolyline
 66
     1
 10
0.0
 20
0.0
 30
0.0
 70
     1
  0
VERTEX
  5
1C5
100
AcDbEntity
  8
0
  6
CONTINUOUS
 62
     7
100
AcDbVertex
100
AcDb2dVertex
 10
5.192695
 20
2.951549
 30
0.0
  0
VERTEX
  5
1C6
100
AcDbEntity
  8
0
  6
CONTINUOUS
 62
     7
100
AcDbVertex
100
AcDb2dVertex
 10
5.285801
 20
2.933085
 30
0.0
  0
VERTEX
  5
1C7
100
AcDbEntity
  8
0
  6
CONTINUOUS
 62
     7
100
AcDbVertex
100
AcDb2dVertex
 10
5.359291
 20
2.901087
 30
0.0
  0
VERTEX
  5
1C8
100
AcDbEntity
  8
0
  6
CONTINUOUS
 62
     7
100
AcDbVertex
100
AcDb2dVertex
 10
5.428043
 20
2.851714
 30
0.0
  0
VERTEX
  5
1C9
100
AcDbEntity
  8
0
  6
CONTINUOUS
 62
     7
100
AcDbVertex
100
AcDb2dVertex
 10
5.484071
 20
2.788889
 30
0.0
  0
VERTEX
  5
1CA
100
AcDbEntity
  8
0
  6
CONTINUOUS
 62
     7
100
AcDbVertex
100
AcDb2dVertex
 10
5.528197
 20
2.709942
 30
0.0
  0
VERTEX
  5
1CB
100
AcDbEntity
  8
0
  6
CONTINUOUS
 62
     7
100
AcDbVertex
100
AcDb2dVertex
 10
5.556779
 20
2.625767
 30
0.0
  0
VERTEX
  5
1CC
100
AcDbEntity
  8
0
  6
CONTINUOUS
 62
     7
100
AcDbVertex
100
AcDb2dVertex
 10
5.572714
 20
2.537506
 30
0.0
  0
VERTEX
  5
1CD
100
AcDbEntity
  8
0
  6
CONTINUOUS
 62
     7
100
AcDbVertex
100
AcDb2dVertex
 10
5.578117
 20
2.438925
 30
0.0
  0
VERTEX
  5
1CE
100
AcDbEntity
  8
0
  6
CONTINUOUS
 62
     7
100
AcDbVertex
100
AcDb2dVertex
 10
5.572166
 20
2.344102
 30
0.0
  0
VERTEX
  5
1CF
100
AcDbEntity
  8
0
  6
CONTINUOUS
 62
     7
100
AcDbVertex
100
AcDb2dVertex
 10
5.547148
 20
2.231113
 30
0.0
  0
VERTEX
  5
1D0
100
AcDbEntity
  8
0
  6
CONTINUOUS
 62
     7
100
AcDbVertex
100
AcDb2dVertex
 10
5.50913
 20
2.143098
 30
0.0
  0
VERTEX
  5
1D1
100
AcDbEntity
  8
0
  6
CONTINUOUS
 62
     7
100
AcDbVertex
100
AcDb2dVertex
 10
5.4569
 20
2.074173
 30
0.0
  0
VERTEX
  5
1D2
100
AcDbEntity
  8
0
  6
CONTINUOUS
 62
     7
100
AcDbVertex
100
AcDb2dVertex
 10
5.38435
 20
2.011893
 30
0.0
  0
VERTEX
  5
1D3
100
AcDbEntity
  8
0
  6
CONTINUOUS
 62
     7
100
AcDbVertex
100
AcDb2dVertex
 10
5.30851
 20
1.970129
 30
0.0
  0
VERTEX
  5
1D4
100
AcDbEntity
  8
0
  6
CONTINUOUS
 62
     7
100
AcDbVertex
100
AcDb2dVertex
 10
5.246491
 20
1.953452
 30
0.0
  0
VERTEX
  5
1D5
100
AcDbEntity
  8
0
  6
CONTINUOUS
 62
     7
100
AcDbVertex
100
AcDb2dVertex
 10
5.18369
 20
1.94306
 30
0.0
  0
VERTEX
  5
1D6
100
AcDbEntity
  8
0
  6
CONTINUOUS
 62
     7
100
AcDbVertex
100
AcDb2dVertex
 10
5.116151
 20
1.94306
 30
0.0
  0
VERTEX
  5
1D7
100
AcDbEntity
  8
0
  6
CONTINUOUS
 62
     7
100
AcDbVertex
100
AcDb2dVertex
 10
5.052098
 20
1.953452
 30
0.0
  0
VERTEX
  5
1D8
100
AcDbEntity
  8
0
  6
CONTINUOUS
 62
     7
100
AcDbVertex
100
AcDb2dVertex
 10
5.002334
 20
1.967705
 30
0.0
  0
VERTEX
  5
1D9
100
AcDbEntity
  8
0
  6
CONTINUOUS
 62
     7
100
AcDbVertex
100
AcDb2dVertex
 10
4.926534
 20
2.005793
 30
0.0
  0
VERTEX
  5
1DA
100
AcDbEntity
  8
0
  6
CONTINUOUS
 62
     7
100
AcDbVertex
100
AcDb2dVertex
 10
4.860365
 20
2.05571
 30
0.0
  0
VERTEX
  5
1DB
100
AcDbEntity
  8
0
  6
CONTINUOUS
 62
     7
100
AcDbVertex
100
AcDb2dVertex
 10
4.801009
 20
2.128486
 30
0.0
  0
VERTEX
  5
1DC
100
AcDbEntity
  8
0
  6
CONTINUOUS
 62
     7
100
AcDbVertex
100
AcDb2dVertex
 10
4.763814
 20
2.199824
 30
0.0
  0
VERTEX
  5
1DD
100
AcDbEntity
  8
0
  6
CONTINUOUS
 62
     7
100
AcDbVertex
100
AcDb2dVertex
 10
4.732922
 20
2.306466
 30
0.0
  0
VERTEX
  5
1DE
100
AcDbEntity
  8
0
  6
CONTINUOUS
 62
     7
100
AcDbVertex
100
AcDb2dVertex
 10
4.726226
 20
2.394563
 30
0.0
  0
VERTEX
  5
1DF
100
AcDbEntity
  8
0
  6
CONTINUOUS
 62
     7
100
AcDbVertex
100
AcDb2dVertex
 10
4.726226
 20
2.483287
 30
0.0
  0
VERTEX
  5
1E0
100
AcDbEntity
  8
0
  6
CONTINUOUS
 62
     7
100
AcDbVertex
100
AcDb2dVertex
 10
4.735232
 20
2.582032
 30
0.0
  0
VERTEX
  5
1E1
100
AcDbEntity
  8
0
  6
CONTINUOUS
 62
     7
100
AcDbVertex
100
AcDb2dVertex
 10
4.750932
 20
2.663321
 30
0.0
  0
VERTEX
  5
1E2
100
AcDbEntity
  8
0
  6
CONTINUOUS
 62
     7
100
AcDbVertex
100
AcDb2dVertex
 10
4.788832
 20
2.751592
 30
0.0
  0
VERTEX
  5
1E3
100
AcDbEntity
  8
0
  6
CONTINUOUS
 62
     7
100
AcDbVertex
100
AcDb2dVertex
 10
4.833192
 20
2.813781
 30
0.0
  0
VERTEX
  5
1E4
100
AcDbEntity
  8
0
  6
CONTINUOUS
 62
     7
100
AcDbVertex
100
AcDb2dVertex
 10
4.876965
 20
2.85806
 30
0.0
  0
VERTEX
  5
1E5
100
AcDbEntity
  8
0
  6
CONTINUOUS
 62
     7
100
AcDbVertex
100
AcDb2dVertex
 10
4.920582
 20
2.888723
 30
0.0
  0
VERTEX
  5
1E6
100
AcDbEntity
  8
0
  6
CONTINUOUS
 62
     7
100
AcDbVertex
100
AcDb2dVertex
 10
4.976571
 20
2.917671
 30
0.0
  0
VERTEX
  5
1E7
100
AcDbEntity
  8
0
  6
CONTINUOUS
 62
     7
100
AcDbVertex
100
AcDb2dVertex
 10
5.039371
 20
2.939267
 30
0.0
  0
VERTEX
  5
1E8
100
AcDbEntity
  8
0
  6
CONTINUOUS
 62
     7
100
AcDbVertex
100
AcDb2dVertex
 10
5.107146
 20
2.951549
 30
0.0
  0
SEQEND
  5
1E9
100
AcDbEntity
  8
0
  6
CONTINUOUS
 62
     7
  0
POLYLINE
  5
1EA
100
AcDbEntity
  8
0
  6
CONTINUOUS
 62
     7
100
AcDb2dPolyline
 66
     1
 10
0.0
 20
0.0
 30
0.0
 70
     1
  0
VERTEX
  5
1EB
100
AcDbEntity
  8
0
  6
CONTINUOUS
 62
     7
100
AcDbVertex
100
AcDb2dVertex
 10
5.208547
 20
3.089354
 30
0.0
  0
VERTEX
  5
1EC
100
AcDbEntity
  8
0
  6
CONTINUOUS
 62
     7
100
AcDbVertex
100
AcDb2dVertex
 10
5.089533
 20
3.089354
 30
0.0
  0
VERTEX
  5
1ED
100
AcDbEntity
  8
0
  6
CONTINUOUS
 62
     7
100
AcDbVertex
100
AcDb2dVertex
 10
4.983047
 20
3.070563
 30
0.0
  0
VERTEX
  5
1EE
100
AcDbEntity
  8
0
  6
CONTINUOUS
 62
     7
100
AcDbVertex
100
AcDb2dVertex
 10
4.90788
 20
3.045507
 30
0.0
  0
VERTEX
  5
1EF
100
AcDbEntity
  8
0
  6
CONTINUOUS
 62
     7
100
AcDbVertex
100
AcDb2dVertex
 10
4.835218
 20
3.007924
 30
0.0
  0
VERTEX
  5
1F0
100
AcDbEntity
  8
0
  6
CONTINUOUS
 62
     7
100
AcDbVertex
100
AcDb2dVertex
 10
4.767568
 20
2.957813
 30
0.0
  0
VERTEX
  5
1F1
100
AcDbEntity
  8
0
  6
CONTINUOUS
 62
     7
100
AcDbVertex
100
AcDb2dVertex
 10
4.704929
 20
2.895173
 30
0.0
  0
VERTEX
  5
1F2
100
AcDbEntity
  8
0
  6
CONTINUOUS
 62
     7
100
AcDbVertex
100
AcDb2dVertex
 10
4.65106
 20
2.822512
 30
0.0
  0
VERTEX
  5
1F3
100
AcDbEntity
  8
0
  6
CONTINUOUS
 62
     7
100
AcDbVertex
100
AcDb2dVertex
 10
4.600948
 20
2.71352
 30
0.0
  0
VERTEX
  5
1F4
100
AcDbEntity
  8
0
  6
CONTINUOUS
 62
     7
100
AcDbVertex
100
AcDb2dVertex
 10
4.572134
 20
2.607034
 30
0.0
  0
VERTEX
  5
1F5
100
AcDbEntity
  8
0
  6
CONTINUOUS
 62
     7
100
AcDbVertex
100
AcDb2dVertex
 10
4.559607
 20
2.494284
 30
0.0
  0
VERTEX
  5
1F6
100
AcDbEntity
  8
0
  6
CONTINUOUS
 62
     7
100
AcDbVertex
100
AcDb2dVertex
 10
4.559607
 20
2.381533
 30
0.0
  0
VERTEX
  5
1F7
100
AcDbEntity
  8
0
  6
CONTINUOUS
 62
     7
100
AcDbVertex
100
AcDb2dVertex
 10
4.575893
 20
2.268783
 30
0.0
  0
VERTEX
  5
1F8
100
AcDbEntity
  8
0
  6
CONTINUOUS
 62
     7
100
AcDbVertex
100
AcDb2dVertex
 10
4.61974
 20
2.137241
 30
0.0
  0
VERTEX
  5
1F9
100
AcDbEntity
  8
0
  6
CONTINUOUS
 62
     7
100
AcDbVertex
100
AcDb2dVertex
 10
4.672357
 20
2.045788
 30
0.0
  0
VERTEX
  5
1FA
100
AcDbEntity
  8
0
  6
CONTINUOUS
 62
     7
100
AcDbVertex
100
AcDb2dVertex
 10
4.757546
 20
1.949324
 30
0.0
  0
VERTEX
  5
1FB
100
AcDbEntity
  8
0
  6
CONTINUOUS
 62
     7
100
AcDbVertex
100
AcDb2dVertex
 10
4.845241
 20
1.886685
 30
0.0
  0
VERTEX
  5
1FC
100
AcDbEntity
  8
0
  6
CONTINUOUS
 62
     7
100
AcDbVertex
100
AcDb2dVertex
 10
4.945463
 20
1.839079
 30
0.0
  0
VERTEX
  5
1FD
100
AcDbEntity
  8
0
  6
CONTINUOUS
 62
     7
100
AcDbVertex
100
AcDb2dVertex
 10
5.026894
 20
1.817782
 30
0.0
  0
VERTEX
  5
1FE
100
AcDbEntity
  8
0
  6
CONTINUOUS
 62
     7
100
AcDbVertex
100
AcDb2dVertex
 10
5.102061
 20
1.80776
 30
0.0
  0
VERTEX
  5
1FF
100
AcDbEntity
  8
0
  6
CONTINUOUS
 62
     7
100
AcDbVertex
100
AcDb2dVertex
 10
5.196019
 20
1.80776
 30
0.0
  0
VERTEX
  5
200
100
AcDbEntity
  8
0
  6
CONTINUOUS
 62
     7
100
AcDbVertex
100
AcDb2dVertex
 10
5.271186
 20
1.817782
 30
0.0
  0
VERTEX
  5
201
100
AcDbEntity
  8
0
  6
CONTINUOUS
 62
     7
100
AcDbVertex
100
AcDb2dVertex
 10
5.371409
 20
1.845343
 30
0.0
  0
VERTEX
  5
202
100
AcDbEntity
  8
0
  6
CONTINUOUS
 62
     7
100
AcDbVertex
100
AcDb2dVertex
 10
5.480401
 20
1.899213
 30
0.0
  0
VERTEX
  5
203
100
AcDbEntity
  8
0
  6
CONTINUOUS
 62
     7
100
AcDbVertex
100
AcDb2dVertex
 10
5.574359
 20
1.97438
 30
0.0
  0
VERTEX
  5
204
100
AcDbEntity
  8
0
  6
CONTINUOUS
 62
     7
100
AcDbVertex
100
AcDb2dVertex
 10
5.64702
 20
2.068338
 30
0.0
  0
VERTEX
  5
205
100
AcDbEntity
  8
0
  6
CONTINUOUS
 62
     7
100
AcDbVertex
100
AcDb2dVertex
 10
5.703396
 20
2.187352
 30
0.0
  0
VERTEX
  5
206
100
AcDbEntity
  8
0
  6
CONTINUOUS
 62
     7
100
AcDbVertex
100
AcDb2dVertex
 10
5.734715
 20
2.31263
 30
0.0
  0
VERTEX
  5
207
100
AcDbEntity
  8
0
  6
CONTINUOUS
 62
     7
100
AcDbVertex
100
AcDb2dVertex
 10
5.744737
 20
2.437908
 30
0.0
  0
VERTEX
  5
208
100
AcDbEntity
  8
0
  6
CONTINUOUS
 62
     7
100
AcDbVertex
100
AcDb2dVertex
 10
5.737221
 20
2.563187
 30
0.0
  0
VERTEX
  5
209
100
AcDbEntity
  8
0
  6
CONTINUOUS
 62
     7
100
AcDbVertex
100
AcDb2dVertex
 10
5.715923
 20
2.663409
 30
0.0
  0
VERTEX
  5
20A
100
AcDbEntity
  8
0
  6
CONTINUOUS
 62
     7
100
AcDbVertex
100
AcDb2dVertex
 10
5.668318
 20
2.788687
 30
0.0
  0
VERTEX
  5
20B
100
AcDbEntity
  8
0
  6
CONTINUOUS
 62
     7
100
AcDbVertex
100
AcDb2dVertex
 10
5.606931
 20
2.882646
 30
0.0
  0
VERTEX
  5
20C
100
AcDbEntity
  8
0
  6
CONTINUOUS
 62
     7
100
AcDbVertex
100
AcDb2dVertex
 10
5.525501
 20
2.964076
 30
0.0
  0
VERTEX
  5
20D
100
AcDbEntity
  8
0
  6
CONTINUOUS
 62
     7
100
AcDbVertex
100
AcDb2dVertex
 10
5.440312
 20
3.020452
 30
0.0
  0
VERTEX
  5
20E
100
AcDbEntity
  8
0
  6
CONTINUOUS
 62
     7
100
AcDbVertex
100
AcDb2dVertex
 10
5.336331
 20
3.064299
 30
0.0
  0
SEQEND
  5
20F
100
AcDbEntity
  8
0
  6
CONTINUOUS
 62
     7
  0
POLYLINE
  5
210
100
AcDbEntity
  8
0
  6
CONTINUOUS
 62
     7
100
AcDb2dPolyline
 66
     1
 10
0.0
 20
0.0
 30
0.0
 70
     1
  0
VERTEX
  5
211
100
AcDbEntity
  8
0
  6
CONTINUOUS
 62
     7
100
AcDbVertex
100
AcDb2dVertex
 10
6.123077
 20
2.477997
 30
0.0
  0
VERTEX
  5
212
100
AcDbEntity
  8
0
  6
CONTINUOUS
 62
     7
100
AcDbVertex
100
AcDb2dVertex
 10
6.123077
 20
2.926493
 30
0.0
  0
VERTEX
  5
213
100
AcDbEntity
  8
0
  6
CONTINUOUS
 62
     7
100
AcDbVertex
100
AcDb2dVertex
 10
6.467592
 20
2.926493
 30
0.0
  0
VERTEX
  5
214
100
AcDbEntity
  8
0
  6
CONTINUOUS
 62
     7
100
AcDbVertex
100
AcDb2dVertex
 10
6.567814
 20
2.920229
 30
0.0
  0
VERTEX
  5
215
100
AcDbEntity
  8
0
  6
CONTINUOUS
 62
     7
100
AcDbVertex
100
AcDb2dVertex
 10
6.630453
 20
2.901437
 30
0.0
  0
VERTEX
  5
216
100
AcDbEntity
  8
0
  6
CONTINUOUS
 62
     7
100
AcDbVertex
100
AcDb2dVertex
 10
6.680565
 20
2.863854
 30
0.0
  0
VERTEX
  5
217
100
AcDbEntity
  8
0
  6
CONTINUOUS
 62
     7
100
AcDbVertex
100
AcDb2dVertex
 10
6.718148
 20
2.813743
 30
0.0
  0
VERTEX
  5
218
100
AcDbEntity
  8
0
  6
CONTINUOUS
 62
     7
100
AcDbVertex
100
AcDb2dVertex
 10
6.73694
 20
2.757368
 30
0.0
  0
VERTEX
  5
219
100
AcDbEntity
  8
0
  6
CONTINUOUS
 62
     7
100
AcDbVertex
100
AcDb2dVertex
 10
6.743204
 20
2.707256
 30
0.0
  0
VERTEX
  5
21A
100
AcDbEntity
  8
0
  6
CONTINUOUS
 62
     7
100
AcDbVertex
100
AcDb2dVertex
 10
6.73694
 20
2.648376
 30
0.0
  0
VERTEX
  5
21B
100
AcDbEntity
  8
0
  6
CONTINUOUS
 62
     7
100
AcDbVertex
100
AcDb2dVertex
 10
6.711884
 20
2.581978
 30
0.0
  0
VERTEX
  5
21C
100
AcDbEntity
  8
0
  6
CONTINUOUS
 62
     7
100
AcDbVertex
100
AcDb2dVertex
 10
6.680565
 20
2.544395
 30
0.0
  0
VERTEX
  5
21D
100
AcDbEntity
  8
0
  6
CONTINUOUS
 62
     7
100
AcDbVertex
100
AcDb2dVertex
 10
6.636717
 20
2.513075
 30
0.0
  0
VERTEX
  5
21E
100
AcDbEntity
  8
0
  6
CONTINUOUS
 62
     7
100
AcDbVertex
100
AcDb2dVertex
 10
6.590364
 20
2.494284
 30
0.0
  0
VERTEX
  5
21F
100
AcDbEntity
  8
0
  6
CONTINUOUS
 62
     7
100
AcDbVertex
100
AcDb2dVertex
 10
6.532736
 20
2.481756
 30
0.0
  0
VERTEX
  5
220
100
AcDbEntity
  8
0
  6
CONTINUOUS
 62
     7
100
AcDbVertex
100
AcDb2dVertex
 10
6.446295
 20
2.475492
 30
0.0
  0
SEQEND
  5
221
100
AcDbEntity
  8
0
  6
CONTINUOUS
 62
     7
  0
POLYLINE
  5
222
100
AcDbEntity
  8
0
  6
CONTINUOUS
 62
     7
100
AcDb2dPolyline
 66
     1
 10
0.0
 20
0.0
 30
0.0
 70
     1
  0
VERTEX
  5
223
100
AcDbEntity
  8
0
  6
CONTINUOUS
 62
     7
100
AcDbVertex
100
AcDb2dVertex
 10
5.960216
 20
3.070563
 30
0.0
  0
VERTEX
  5
224
100
AcDbEntity
  8
0
  6
CONTINUOUS
 62
     7
100
AcDbVertex
100
AcDb2dVertex
 10
5.960216
 20
1.824046
 30
0.0
  0
VERTEX
  5
225
100
AcDbEntity
  8
0
  6
CONTINUOUS
 62
     7
100
AcDbVertex
100
AcDb2dVertex
 10
6.123077
 20
1.824046
 30
0.0
  0
VERTEX
  5
226
100
AcDbEntity
  8
0
  6
CONTINUOUS
 62
     7
100
AcDbVertex
100
AcDb2dVertex
 10
6.123077
 20
2.331422
 30
0.0
  0
VERTEX
  5
227
100
AcDbEntity
  8
0
  6
CONTINUOUS
 62
     7
100
AcDbVertex
100
AcDb2dVertex
 10
6.455064
 20
2.331422
 30
0.0
  0
VERTEX
  5
228
100
AcDbEntity
  8
0
  6
CONTINUOUS
 62
     7
100
AcDbVertex
100
AcDb2dVertex
 10
6.574078
 20
2.341444
 30
0.0
  0
VERTEX
  5
229
100
AcDbEntity
  8
0
  6
CONTINUOUS
 62
     7
100
AcDbVertex
100
AcDb2dVertex
 10
6.674301
 20
2.362742
 30
0.0
  0
VERTEX
  5
22A
100
AcDbEntity
  8
0
  6
CONTINUOUS
 62
     7
100
AcDbVertex
100
AcDb2dVertex
 10
6.755731
 20
2.400325
 30
0.0
  0
VERTEX
  5
22B
100
AcDbEntity
  8
0
  6
CONTINUOUS
 62
     7
100
AcDbVertex
100
AcDb2dVertex
 10
6.805843
 20
2.441667
 30
0.0
  0
VERTEX
  5
22C
100
AcDbEntity
  8
0
  6
CONTINUOUS
 62
     7
100
AcDbVertex
100
AcDb2dVertex
 10
6.855954
 20
2.506811
 30
0.0
  0
VERTEX
  5
22D
100
AcDbEntity
  8
0
  6
CONTINUOUS
 62
     7
100
AcDbVertex
100
AcDb2dVertex
 10
6.891032
 20
2.585737
 30
0.0
  0
VERTEX
  5
22E
100
AcDbEntity
  8
0
  6
CONTINUOUS
 62
     7
100
AcDbVertex
100
AcDb2dVertex
 10
6.906065
 20
2.667167
 30
0.0
  0
VERTEX
  5
22F
100
AcDbEntity
  8
0
  6
CONTINUOUS
 62
     7
100
AcDbVertex
100
AcDb2dVertex
 10
6.906065
 20
2.757368
 30
0.0
  0
VERTEX
  5
230
100
AcDbEntity
  8
0
  6
CONTINUOUS
 62
     7
100
AcDbVertex
100
AcDb2dVertex
 10
6.893537
 20
2.820007
 30
0.0
  0
VERTEX
  5
231
100
AcDbEntity
  8
0
  6
CONTINUOUS
 62
     7
100
AcDbVertex
100
AcDb2dVertex
 10
6.862218
 20
2.895173
 30
0.0
  0
VERTEX
  5
232
100
AcDbEntity
  8
0
  6
CONTINUOUS
 62
     7
100
AcDbVertex
100
AcDb2dVertex
 10
6.81837
 20
2.957813
 30
0.0
  0
VERTEX
  5
233
100
AcDbEntity
  8
0
  6
CONTINUOUS
 62
     7
100
AcDbVertex
100
AcDb2dVertex
 10
6.758237
 20
3.007924
 30
0.0
  0
VERTEX
  5
234
100
AcDbEntity
  8
0
  6
CONTINUOUS
 62
     7
100
AcDbVertex
100
AcDb2dVertex
 10
6.670542
 20
3.045507
 30
0.0
  0
VERTEX
  5
235
100
AcDbEntity
  8
0
  6
CONTINUOUS
 62
     7
100
AcDbVertex
100
AcDb2dVertex
 10
6.567814
 20
3.064299
 30
0.0
  0
VERTEX
  5
236
100
AcDbEntity
  8
0
  6
CONTINUOUS
 62
     7
100
AcDbVertex
100
AcDb2dVertex
 10
6.442536
 20
3.070563
 30
0.0
  0
SEQEND
  5
237
100
AcDbEntity
  8
0
  6
CONTINUOUS
 62
     7
  0
POLYLINE
  5
238
100
AcDbEntity
  8
0
  6
CONTINUOUS
 62
     7
100
AcDb2dPolyline
 66
     1
 10
0.0
 20
0.0
 30
0.0
 70
     1
  0
VERTEX
  5
239
100
AcDbEntity
  8
0
  6
CONTINUOUS
 62
     7
100
AcDbVertex
100
AcDb2dVertex
 10
2.682188
 20
6.039042
 30
0.0
  0
VERTEX
  5
23A
100
AcDbEntity
  8
0
  6
CONTINUOUS
 62
     7
100
AcDbVertex
100
AcDb2dVertex
 10
2.656223
 20
5.994531
 30
0.0
  0
VERTEX
  5
23B
100
AcDbEntity
  8
0
  6
CONTINUOUS
 62
     7
100
AcDbVertex
100
AcDb2dVertex
 10
2.648804
 20
5.940069
 30
0.0
  0
VERTEX
  5
23C
100
AcDbEntity
  8
0
  6
CONTINUOUS
 62
     7
100
AcDbVertex
100
AcDb2dVertex
 10
0.955444
 20
6.935906
 30
0.0
  0
VERTEX
  5
23D
100
AcDbEntity
  8
0
  6
CONTINUOUS
 62
     7
100
AcDbVertex
100
AcDb2dVertex
 10
0.898012
 20
6.961372
 30
0.0
  0
VERTEX
  5
23E
100
AcDbEntity
  8
0
  6
CONTINUOUS
 62
     7
100
AcDbVertex
100
AcDb2dVertex
 10
0.857082
 20
7.006203
 30
0.0
  0
VERTEX
  5
23F
100
AcDbEntity
  8
0
  6
CONTINUOUS
 62
     7
100
AcDbVertex
100
AcDb2dVertex
 10
0.820117
 20
7.068942
 30
0.0
  0
VERTEX
  5
240
100
AcDbEntity
  8
0
  6
CONTINUOUS
 62
     7
100
AcDbVertex
100
AcDb2dVertex
 10
0.69771
 20
7.167238
 30
0.0
  0
VERTEX
  5
241
100
AcDbEntity
  8
0
  6
CONTINUOUS
 62
     7
100
AcDbVertex
100
AcDb2dVertex
 10
0.701419
 20
7.195058
 30
0.0
  0
VERTEX
  5
242
100
AcDbEntity
  8
0
  6
CONTINUOUS
 62
     7
100
AcDbVertex
100
AcDb2dVertex
 10
0.820117
 20
7.139418
 30
0.0
  0
VERTEX
  5
243
100
AcDbEntity
  8
0
  6
CONTINUOUS
 62
     7
100
AcDbVertex
100
AcDb2dVertex
 10
0.938814
 20
7.102325
 30
0.0
  0
SEQEND
  5
244
100
AcDbEntity
  8
0
  6
CONTINUOUS
 62
     7
  0
POLYLINE
  5
245
100
AcDbEntity
  8
0
  6
CONTINUOUS
 62
     7
100
AcDb2dPolyline
 66
     1
 10
0.0
 20
0.0
 30
0.0
 70
     1
  0
VERTEX
  5
246
100
AcDbEntity
  8
0
  6
CONTINUOUS
 62
     7
100
AcDbVertex
100
AcDb2dVertex
 10
2.953497
 20
5.928065
 30
0.0
  0
VERTEX
  5
247
100
AcDbEntity
  8
0
  6
CONTINUOUS
 62
     7
100
AcDbVertex
100
AcDb2dVertex
 10
3.068485
 20
6.054182
 30
0.0
  0
VERTEX
  5
248
100
AcDbEntity
  8
0
  6
CONTINUOUS
 62
     7
100
AcDbVertex
100
AcDb2dVertex
 10
3.127834
 20
6.076437
 30
0.0
  0
VERTEX
  5
249
100
AcDbEntity
  8
0
  6
CONTINUOUS
 62
     7
100
AcDbVertex
100
AcDb2dVertex
 10
3.190892
 20
6.076437
 30
0.0
  0
VERTEX
  5
24A
100
AcDbEntity
  8
0
  6
CONTINUOUS
 62
     7
100
AcDbVertex
100
AcDb2dVertex
 10
3.261369
 20
6.020798
 30
0.0
  0
VERTEX
  5
24B
100
AcDbEntity
  8
0
  6
CONTINUOUS
 62
     7
100
AcDbVertex
100
AcDb2dVertex
 10
3.291044
 20
5.950321
 30
0.0
  0
VERTEX
  5
24C
100
AcDbEntity
  8
0
  6
CONTINUOUS
 62
     7
100
AcDbVertex
100
AcDb2dVertex
 10
3.320718
 20
5.887263
 30
0.0
  0
VERTEX
  5
24D
100
AcDbEntity
  8
0
  6
CONTINUOUS
 62
     7
100
AcDbVertex
100
AcDb2dVertex
 10
4.040323
 20
5.438437
 30
0.0
  0
VERTEX
  5
24E
100
AcDbEntity
  8
0
  6
CONTINUOUS
 62
     7
100
AcDbVertex
100
AcDb2dVertex
 10
4.088544
 20
5.379088
 30
0.0
  0
VERTEX
  5
24F
100
AcDbEntity
  8
0
  6
CONTINUOUS
 62
     7
100
AcDbVertex
100
AcDb2dVertex
 10
4.196114
 20
5.245553
 30
0.0
  0
VERTEX
  5
250
100
AcDbEntity
  8
0
  6
CONTINUOUS
 62
     7
100
AcDbVertex
100
AcDb2dVertex
 10
6.236232
 20
4.021483
 30
0.0
  0
VERTEX
  5
251
100
AcDbEntity
  8
0
  6
CONTINUOUS
 62
     7
100
AcDbVertex
100
AcDb2dVertex
 10
6.29929
 20
3.932459
 30
0.0
  0
VERTEX
  5
252
100
AcDbEntity
  8
0
  6
CONTINUOUS
 62
     7
100
AcDbVertex
100
AcDb2dVertex
 10
6.295581
 20
3.828599
 30
0.0
  0
VERTEX
  5
253
100
AcDbEntity
  8
0
  6
CONTINUOUS
 62
     7
100
AcDbVertex
100
AcDb2dVertex
 10
6.232522
 20
3.787796
 30
0.0
  0
VERTEX
  5
254
100
AcDbEntity
  8
0
  6
CONTINUOUS
 62
     7
100
AcDbVertex
100
AcDb2dVertex
 10
6.162046
 20
3.772959
 30
0.0
  0
VERTEX
  5
255
100
AcDbEntity
  8
0
  6
CONTINUOUS
 62
     7
100
AcDbVertex
100
AcDb2dVertex
 10
6.043348
 20
3.813761
 30
0.0
  0
VERTEX
  5
256
100
AcDbEntity
  8
0
  6
CONTINUOUS
 62
     7
100
AcDbVertex
100
AcDb2dVertex
 10
4.044033
 20
4.967355
 30
0.0
  0
VERTEX
  5
257
100
AcDbEntity
  8
0
  6
CONTINUOUS
 62
     7
100
AcDbVertex
100
AcDb2dVertex
 10
3.877114
 20
5.008158
 30
0.0
  0
VERTEX
  5
258
100
AcDbEntity
  8
0
  6
CONTINUOUS
 62
     7
100
AcDbVertex
100
AcDb2dVertex
 10
3.78809
 20
4.99332
 30
0.0
  0
VERTEX
  5
259
100
AcDbEntity
  8
0
  6
CONTINUOUS
 62
     7
100
AcDbVertex
100
AcDb2dVertex
 10
3.068485
 20
5.393925
 30
0.0
  0
VERTEX
  5
25A
100
AcDbEntity
  8
0
  6
CONTINUOUS
 62
     7
100
AcDbVertex
100
AcDb2dVertex
 10
3.052433
 20
5.485311
 30
0.0
  0
VERTEX
  5
25B
100
AcDbEntity
  8
0
  6
CONTINUOUS
 62
     7
100
AcDbVertex
100
AcDb2dVertex
 10
3.135076
 20
5.651897
 30
0.0
  0
VERTEX
  5
25C
100
AcDbEntity
  8
0
  6
CONTINUOUS
 62
     7
100
AcDbVertex
100
AcDb2dVertex
 10
3.233729
 20
5.802488
 30
0.0
  0
VERTEX
  5
25D
100
AcDbEntity
  8
0
  6
CONTINUOUS
 62
     7
100
AcDbVertex
100
AcDb2dVertex
 10
3.206833
 20
5.880691
 30
0.0
  0
VERTEX
  5
25E
100
AcDbEntity
  8
0
  6
CONTINUOUS
 62
     7
100
AcDbVertex
100
AcDb2dVertex
 10
3.096725
 20
5.776474
 30
0.0
  0
VERTEX
  5
25F
100
AcDbEntity
  8
0
  6
CONTINUOUS
 62
     7
100
AcDbVertex
100
AcDb2dVertex
 10
2.986669
 20
5.600481
 30
0.0
  0
VERTEX
  5
260
100
AcDbEntity
  8
0
  6
CONTINUOUS
 62
     7
100
AcDbVertex
100
AcDb2dVertex
 10
2.93866
 20
5.445856
 30
0.0
  0
VERTEX
  5
261
100
AcDbEntity
  8
0
  6
CONTINUOUS
 62
     7
100
AcDbVertex
100
AcDb2dVertex
 10
2.860764
 20
5.431018
 30
0.0
  0
VERTEX
  5
262
100
AcDbEntity
  8
0
  6
CONTINUOUS
 62
     7
100
AcDbVertex
100
AcDb2dVertex
 10
2.816253
 20
5.464402
 30
0.0
  0
VERTEX
  5
263
100
AcDbEntity
  8
0
  6
CONTINUOUS
 62
     7
100
AcDbVertex
100
AcDb2dVertex
 10
2.797706
 20
5.52746
 30
0.0
  0
VERTEX
  5
264
100
AcDbEntity
  8
0
  6
CONTINUOUS
 62
     7
100
AcDbVertex
100
AcDb2dVertex
 10
2.808834
 20
5.623902
 30
0.0
  0
VERTEX
  5
265
100
AcDbEntity
  8
0
  6
CONTINUOUS
 62
     7
100
AcDbVertex
100
AcDb2dVertex
 10
2.849636
 20
5.750019
 30
0.0
  0
SEQEND
  5
266
100
AcDbEntity
  8
0
  6
CONTINUOUS
 62
     7
  0
POLYLINE
  5
267
100
AcDbEntity
  8
0
  6
CONTINUOUS
 62
     7
100
AcDb2dPolyline
 66
     1
 10
0.0
 20
0.0
 30
0.0
 70
     1
  0
VERTEX
  5
268
100
AcDbEntity
  8
0
  6
CONTINUOUS
 62
     7
100
AcDbVertex
100
AcDb2dVertex
 10
2.816756
 20
6.113001
 30
0.0
  0
VERTEX
  5
269
100
AcDbEntity
  8
0
  6
CONTINUOUS
 62
     7
100
AcDbVertex
100
AcDb2dVertex
 10
2.780767
 20
6.109311
 30
0.0
  0
VERTEX
  5
26A
100
AcDbEntity
  8
0
  6
CONTINUOUS
 62
     7
100
AcDbVertex
100
AcDb2dVertex
 10
0.882923
 20
7.243459
 30
0.0
  0
VERTEX
  5
26B
100
AcDbEntity
  8
0
  6
CONTINUOUS
 62
     7
100
AcDbVertex
100
AcDb2dVertex
 10
0.811924
 20
7.237872
 30
0.0
  0
VERTEX
  5
26C
100
AcDbEntity
  8
0
  6
CONTINUOUS
 62
     7
100
AcDbVertex
100
AcDb2dVertex
 10
0.38532
 20
7.420102
 30
0.0
  0
VERTEX
  5
26D
100
AcDbEntity
  8
0
  6
CONTINUOUS
 62
     7
100
AcDbVertex
100
AcDb2dVertex
 10
0.375
 20
7.399942
 30
0.0
  0
VERTEX
  5
26E
100
AcDbEntity
  8
0
  6
CONTINUOUS
 62
     7
100
AcDbVertex
100
AcDb2dVertex
 10
0.717648
 20
7.074179
 30
0.0
  0
VERTEX
  5
26F
100
AcDbEntity
  8
0
  6
CONTINUOUS
 62
     7
100
AcDbVertex
100
AcDb2dVertex
 10
0.730104
 20
6.989209
 30
0.0
  0
VERTEX
  5
270
100
AcDbEntity
  8
0
  6
CONTINUOUS
 62
     7
100
AcDbVertex
100
AcDb2dVertex
 10
2.621278
 20
5.859091
 30
0.0
  0
VERTEX
  5
271
100
AcDbEntity
  8
0
  6
CONTINUOUS
 62
     7
100
AcDbVertex
100
AcDb2dVertex
 10
2.625961
 20
5.820113
 30
0.0
  0
VERTEX
  5
272
100
AcDbEntity
  8
0
  6
CONTINUOUS
 62
     7
100
AcDbVertex
100
AcDb2dVertex
 10
2.56997
 20
5.677762
 30
0.0
  0
VERTEX
  5
273
100
AcDbEntity
  8
0
  6
CONTINUOUS
 62
     7
100
AcDbVertex
100
AcDb2dVertex
 10
2.578598
 20
5.620473
 30
0.0
  0
VERTEX
  5
274
100
AcDbEntity
  8
0
  6
CONTINUOUS
 62
     7
100
AcDbVertex
100
AcDb2dVertex
 10
2.70952
 20
5.519341
 30
0.0
  0
VERTEX
  5
275
100
AcDbEntity
  8
0
  6
CONTINUOUS
 62
     7
100
AcDbVertex
100
AcDb2dVertex
 10
2.722233
 20
5.431089
 30
0.0
  0
VERTEX
  5
276
100
AcDbEntity
  8
0
  6
CONTINUOUS
 62
     7
100
AcDbVertex
100
AcDb2dVertex
 10
2.78157
 20
5.3316
 30
0.0
  0
VERTEX
  5
277
100
AcDbEntity
  8
0
  6
CONTINUOUS
 62
     7
100
AcDbVertex
100
AcDb2dVertex
 10
2.973323
 20
5.345546
 30
0.0
  0
VERTEX
  5
278
100
AcDbEntity
  8
0
  6
CONTINUOUS
 62
     7
100
AcDbVertex
100
AcDb2dVertex
 10
3.884561
 20
4.845385
 30
0.0
  0
VERTEX
  5
279
100
AcDbEntity
  8
0
  6
CONTINUOUS
 62
     7
100
AcDbVertex
100
AcDb2dVertex
 10
3.922453
 20
4.868211
 30
0.0
  0
VERTEX
  5
27A
100
AcDbEntity
  8
0
  6
CONTINUOUS
 62
     7
100
AcDbVertex
100
AcDb2dVertex
 10
4.078014
 20
4.845727
 30
0.0
  0
VERTEX
  5
27B
100
AcDbEntity
  8
0
  6
CONTINUOUS
 62
     7
100
AcDbVertex
100
AcDb2dVertex
 10
6.261159
 20
3.581325
 30
0.0
  0
VERTEX
  5
27C
100
AcDbEntity
  8
0
  6
CONTINUOUS
 62
     7
100
AcDbVertex
100
AcDb2dVertex
 10
6.381669
 20
3.647929
 30
0.0
  0
VERTEX
  5
27D
100
AcDbEntity
  8
0
  6
CONTINUOUS
 62
     7
100
AcDbVertex
100
AcDb2dVertex
 10
6.728469
 20
3.431213
 30
0.0
  0
VERTEX
  5
27E
100
AcDbEntity
  8
0
  6
CONTINUOUS
 62
     7
100
AcDbVertex
100
AcDb2dVertex
 10
6.884364
 20
3.301175
 30
0.0
  0
VERTEX
  5
27F
100
AcDbEntity
  8
0
  6
CONTINUOUS
 62
     7
100
AcDbVertex
100
AcDb2dVertex
 10
6.981444
 20
3.1426
 30
0.0
  0
VERTEX
  5
280
100
AcDbEntity
  8
0
  6
CONTINUOUS
 62
     7
100
AcDbVertex
100
AcDb2dVertex
 10
7.060797
 20
2.919752
 30
0.0
  0
VERTEX
  5
281
100
AcDbEntity
  8
0
  6
CONTINUOUS
 62
     7
100
AcDbVertex
100
AcDb2dVertex
 10
7.177119
 20
2.785198
 30
0.0
  0
VERTEX
  5
282
100
AcDbEntity
  8
0
  6
CONTINUOUS
 62
     7
100
AcDbVertex
100
AcDb2dVertex
 10
7.364623
 20
2.710646
 30
0.0
  0
VERTEX
  5
283
100
AcDbEntity
  8
0
  6
CONTINUOUS
 62
     7
100
AcDbVertex
100
AcDb2dVertex
 10
7.583162
 20
2.676034
 30
0.0
  0
VERTEX
  5
284
100
AcDbEntity
  8
0
  6
CONTINUOUS
 62
     7
100
AcDbVertex
100
AcDb2dVertex
 10
7.836894
 20
2.647874
 30
0.0
  0
VERTEX
  5
285
100
AcDbEntity
  8
0
  6
CONTINUOUS
 62
     7
100
AcDbVertex
100
AcDb2dVertex
 10
8.103848
 20
2.644367
 30
0.0
  0
VERTEX
  5
286
100
AcDbEntity
  8
0
  6
CONTINUOUS
 62
     7
100
AcDbVertex
100
AcDb2dVertex
 10
8.125
 20
2.867671
 30
0.0
  0
VERTEX
  5
287
100
AcDbEntity
  8
0
  6
CONTINUOUS
 62
     7
100
AcDbVertex
100
AcDb2dVertex
 10
7.921876
 20
2.876693
 30
0.0
  0
VERTEX
  5
288
100
AcDbEntity
  8
0
  6
CONTINUOUS
 62
     7
100
AcDbVertex
100
AcDb2dVertex
 10
7.613955
 20
2.911294
 30
0.0
  0
VERTEX
  5
289
100
AcDbEntity
  8
0
  6
CONTINUOUS
 62
     7
100
AcDbVertex
100
AcDb2dVertex
 10
7.374227
 20
2.943052
 30
0.0
  0
VERTEX
  5
28A
100
AcDbEntity
  8
0
  6
CONTINUOUS
 62
     7
100
AcDbVertex
100
AcDb2dVertex
 10
7.25035
 20
3.030387
 30
0.0
  0
VERTEX
  5
28B
100
AcDbEntity
  8
0
  6
CONTINUOUS
 62
     7
100
AcDbVertex
100
AcDb2dVertex
 10
7.140078
 20
3.293644
 30
0.0
  0
VERTEX
  5
28C
100
AcDbEntity
  8
0
  6
CONTINUOUS
 62
     7
100
AcDbVertex
100
AcDb2dVertex
 10
7.061408
 20
3.423089
 30
0.0
  0
VERTEX
  5
28D
100
AcDbEntity
  8
0
  6
CONTINUOUS
 62
     7
100
AcDbVertex
100
AcDb2dVertex
 10
6.940694
 20
3.529405
 30
0.0
  0
VERTEX
  5
28E
100
AcDbEntity
  8
0
  6
CONTINUOUS
 62
     7
100
AcDbVertex
100
AcDb2dVertex
 10
6.775288
 20
3.642887
 30
0.0
  0
VERTEX
  5
28F
100
AcDbEntity
  8
0
  6
CONTINUOUS
 62
     7
100
AcDbVertex
100
AcDb2dVertex
 10
6.464756
 20
3.836986
 30
0.0
  0
VERTEX
  5
290
100
AcDbEntity
  8
0
  6
CONTINUOUS
 62
     7
100
AcDbVertex
100
AcDb2dVertex
 10
6.477451
 20
3.858802
 30
0.0
  0
VERTEX
  5
291
100
AcDbEntity
  8
0
  6
CONTINUOUS
 62
     7
100
AcDbVertex
100
AcDb2dVertex
 10
6.466392
 20
3.999321
 30
0.0
  0
VERTEX
  5
292
100
AcDbEntity
  8
0
  6
CONTINUOUS
 62
     7
100
AcDbVertex
100
AcDb2dVertex
 10
4.323905
 20
5.30125
 30
0.0
  0
VERTEX
  5
293
100
AcDbEntity
  8
0
  6
CONTINUOUS
 62
     7
100
AcDbVertex
100
AcDb2dVertex
 10
4.220396
 20
5.400442
 30
0.0
  0
VERTEX
  5
294
100
AcDbEntity
  8
0
  6
CONTINUOUS
 62
     7
100
AcDbVertex
100
AcDb2dVertex
 10
4.216343
 20
5.451937
 30
0.0
  0
VERTEX
  5
295
100
AcDbEntity
  8
0
  6
CONTINUOUS
 62
     7
100
AcDbVertex
100
AcDb2dVertex
 10
3.378434
 20
5.981317
 30
0.0
  0
VERTEX
  5
296
100
AcDbEntity
  8
0
  6
CONTINUOUS
 62
     7
100
AcDbVertex
100
AcDb2dVertex
 10
3.296157
 20
6.175763
 30
0.0
  0
VERTEX
  5
297
100
AcDbEntity
  8
0
  6
CONTINUOUS
 62
     7
100
AcDbVertex
100
AcDb2dVertex
 10
3.197102
 20
6.205175
 30
0.0
  0
VERTEX
  5
298
100
AcDbEntity
  8
0
  6
CONTINUOUS
 62
     7
100
AcDbVertex
100
AcDb2dVertex
 10
3.110031
 20
6.192587
 30
0.0
  0
VERTEX
  5
299
100
AcDbEntity
  8
0
  6
CONTINUOUS
 62
     7
100
AcDbVertex
100
AcDb2dVertex
 10
2.976173
 20
6.240653
 30
0.0
  0
VERTEX
  5
29A
100
AcDbEntity
  8
0
  6
CONTINUOUS
 62
     7
100
AcDbVertex
100
AcDb2dVertex
 10
2.915094
 20
6.224258
 30
0.0
  0
SEQEND
  5
29B
100
AcDbEntity
  8
0
  6
CONTINUOUS
 62
     7
  0
POLYLINE
  5
29C
100
AcDbEntity
  8
0
  6
CONTINUOUS
 62
     7
100
AcDb2dPolyline
 66
     1
 10
0.0
 20
0.0
 30
0.0
 70
     1
  0
VERTEX
  5
29D
100
AcDbEntity
  8
0
  6
CONTINUOUS
 62
     7
100
AcDbVertex
100
AcDb2dVertex
 10
3.406026
 20
4.932305
 30
0.0
  0
VERTEX
  5
29E
100
AcDbEntity
  8
0
  6
CONTINUOUS
 62
     7
100
AcDbVertex
100
AcDb2dVertex
 10
2.769943
 20
4.580319
 30
0.0
  0
VERTEX
  5
29F
100
AcDbEntity
  8
0
  6
CONTINUOUS
 62
     7
100
AcDbVertex
100
AcDb2dVertex
 10
2.564259
 20
4.468221
 30
0.0
  0
VERTEX
  5
2A0
100
AcDbEntity
  8
0
  6
CONTINUOUS
 62
     7
100
AcDbVertex
100
AcDb2dVertex
 10
2.217935
 20
4.28269
 30
0.0
  0
VERTEX
  5
2A1
100
AcDbEntity
  8
0
  6
CONTINUOUS
 62
     7
100
AcDbVertex
100
AcDb2dVertex
 10
1.98293
 20
4.183741
 30
0.0
  0
VERTEX
  5
2A2
100
AcDbEntity
  8
0
  6
CONTINUOUS
 62
     7
100
AcDbVertex
100
AcDb2dVertex
 10
1.834506
 20
4.146635
 30
0.0
  0
VERTEX
  5
2A3
100
AcDbEntity
  8
0
  6
CONTINUOUS
 62
     7
100
AcDbVertex
100
AcDb2dVertex
 10
1.692266
 20
4.159003
 30
0.0
  0
VERTEX
  5
2A4
100
AcDbEntity
  8
0
  6
CONTINUOUS
 62
     7
100
AcDbVertex
100
AcDb2dVertex
 10
1.444892
 20
4.220847
 30
0.0
  0
VERTEX
  5
2A5
100
AcDbEntity
  8
0
  6
CONTINUOUS
 62
     7
100
AcDbVertex
100
AcDb2dVertex
 10
1.265546
 20
4.245584
 30
0.0
  0
VERTEX
  5
2A6
100
AcDbEntity
  8
0
  6
CONTINUOUS
 62
     7
100
AcDbVertex
100
AcDb2dVertex
 10
1.12949
 20
4.233216
 30
0.0
  0
VERTEX
  5
2A7
100
AcDbEntity
  8
0
  6
CONTINUOUS
 62
     7
100
AcDbVertex
100
AcDb2dVertex
 10
1.030541
 20
4.196109
 30
0.0
  0
VERTEX
  5
2A8
100
AcDbEntity
  8
0
  6
CONTINUOUS
 62
     7
100
AcDbVertex
100
AcDb2dVertex
 10
0.925407
 20
4.121897
 30
0.0
  0
VERTEX
  5
2A9
100
AcDbEntity
  8
0
  6
CONTINUOUS
 62
     7
100
AcDbVertex
100
AcDb2dVertex
 10
0.857379
 20
4.035316
 30
0.0
  0
VERTEX
  5
2AA
100
AcDbEntity
  8
0
  6
CONTINUOUS
 62
     7
100
AcDbVertex
100
AcDb2dVertex
 10
0.769656
 20
3.892828
 30
0.0
  0
VERTEX
  5
2AB
100
AcDbEntity
  8
0
  6
CONTINUOUS
 62
     7
100
AcDbVertex
100
AcDb2dVertex
 10
0.69858
 20
3.751365
 30
0.0
  0
VERTEX
  5
2AC
100
AcDbEntity
  8
0
  6
CONTINUOUS
 62
     7
100
AcDbVertex
100
AcDb2dVertex
 10
0.634743
 20
3.602412
 30
0.0
  0
VERTEX
  5
2AD
100
AcDbEntity
  8
0
  6
CONTINUOUS
 62
     7
100
AcDbVertex
100
AcDb2dVertex
 10
0.56053
 20
3.367407
 30
0.0
  0
VERTEX
  5
2AE
100
AcDbEntity
  8
0
  6
CONTINUOUS
 62
     7
100
AcDbVertex
100
AcDb2dVertex
 10
0.585268
 20
3.299379
 30
0.0
  0
VERTEX
  5
2AF
100
AcDbEntity
  8
0
  6
CONTINUOUS
 62
     7
100
AcDbVertex
100
AcDb2dVertex
 10
0.622374
 20
3.280826
 30
0.0
  0
VERTEX
  5
2B0
100
AcDbEntity
  8
0
  6
CONTINUOUS
 62
     7
100
AcDbVertex
100
AcDb2dVertex
 10
1.042909
 20
3.688993
 30
0.0
  0
VERTEX
  5
2B1
100
AcDbEntity
  8
0
  6
CONTINUOUS
 62
     7
100
AcDbVertex
100
AcDb2dVertex
 10
1.117122
 20
3.71373
 30
0.0
  0
VERTEX
  5
2B2
100
AcDbEntity
  8
0
  6
CONTINUOUS
 62
     7
100
AcDbVertex
100
AcDb2dVertex
 10
1.240809
 20
3.688993
 30
0.0
  0
VERTEX
  5
2B3
100
AcDbEntity
  8
0
  6
CONTINUOUS
 62
     7
100
AcDbVertex
100
AcDb2dVertex
 10
1.426339
 20
3.590043
 30
0.0
  0
VERTEX
  5
2B4
100
AcDbEntity
  8
0
  6
CONTINUOUS
 62
     7
100
AcDbVertex
100
AcDb2dVertex
 10
1.550026
 20
3.42925
 30
0.0
  0
VERTEX
  5
2B5
100
AcDbEntity
  8
0
  6
CONTINUOUS
 62
     7
100
AcDbVertex
100
AcDb2dVertex
 10
1.618054
 20
3.305564
 30
0.0
  0
VERTEX
  5
2B6
100
AcDbEntity
  8
0
  6
CONTINUOUS
 62
     7
100
AcDbVertex
100
AcDb2dVertex
 10
1.636607
 20
3.206614
 30
0.0
  0
VERTEX
  5
2B7
100
AcDbEntity
  8
0
  6
CONTINUOUS
 62
     7
100
AcDbVertex
100
AcDb2dVertex
 10
1.624238
 20
3.10148
 30
0.0
  0
VERTEX
  5
2B8
100
AcDbEntity
  8
0
  6
CONTINUOUS
 62
     7
100
AcDbVertex
100
AcDb2dVertex
 10
1.599501
 20
3.052005
 30
0.0
  0
VERTEX
  5
2B9
100
AcDbEntity
  8
0
  6
CONTINUOUS
 62
     7
100
AcDbVertex
100
AcDb2dVertex
 10
1.197518
 20
2.637654
 30
0.0
  0
VERTEX
  5
2BA
100
AcDbEntity
  8
0
  6
CONTINUOUS
 62
     7
100
AcDbVertex
100
AcDb2dVertex
 10
1.216071
 20
2.600548
 30
0.0
  0
VERTEX
  5
2BB
100
AcDbEntity
  8
0
  6
CONTINUOUS
 62
     7
100
AcDbVertex
100
AcDb2dVertex
 10
1.593316
 20
2.662391
 30
0.0
  0
VERTEX
  5
2BC
100
AcDbEntity
  8
0
  6
CONTINUOUS
 62
     7
100
AcDbVertex
100
AcDb2dVertex
 10
1.747925
 20
2.705682
 30
0.0
  0
VERTEX
  5
2BD
100
AcDbEntity
  8
0
  6
CONTINUOUS
 62
     7
100
AcDbVertex
100
AcDb2dVertex
 10
1.858816
 20
2.758399
 30
0.0
  0
VERTEX
  5
2BE
100
AcDbEntity
  8
0
  6
CONTINUOUS
 62
     7
100
AcDbVertex
100
AcDb2dVertex
 10
1.945824
 20
2.823184
 30
0.0
  0
VERTEX
  5
2BF
100
AcDbEntity
  8
0
  6
CONTINUOUS
 62
     7
100
AcDbVertex
100
AcDb2dVertex
 10
2.069511
 20
2.946871
 30
0.0
  0
VERTEX
  5
2C0
100
AcDbEntity
  8
0
  6
CONTINUOUS
 62
     7
100
AcDbVertex
100
AcDb2dVertex
 10
2.143723
 20
3.120033
 30
0.0
  0
VERTEX
  5
2C1
100
AcDbEntity
  8
0
  6
CONTINUOUS
 62
     7
100
AcDbVertex
100
AcDb2dVertex
 10
2.168461
 20
3.317932
 30
0.0
  0
VERTEX
  5
2C2
100
AcDbEntity
  8
0
  6
CONTINUOUS
 62
     7
100
AcDbVertex
100
AcDb2dVertex
 10
2.205567
 20
3.416882
 30
0.0
  0
VERTEX
  5
2C3
100
AcDbEntity
  8
0
  6
CONTINUOUS
 62
     7
100
AcDbVertex
100
AcDb2dVertex
 10
2.285963
 20
3.515831
 30
0.0
  0
VERTEX
  5
2C4
100
AcDbEntity
  8
0
  6
CONTINUOUS
 62
     7
100
AcDbVertex
100
AcDb2dVertex
 10
2.465309
 20
3.664256
 30
0.0
  0
VERTEX
  5
2C5
100
AcDbEntity
  8
0
  6
CONTINUOUS
 62
     7
100
AcDbVertex
100
AcDb2dVertex
 10
2.666301
 20
3.803403
 30
0.0
  0
VERTEX
  5
2C6
100
AcDbEntity
  8
0
  6
CONTINUOUS
 62
     7
100
AcDbVertex
100
AcDb2dVertex
 10
2.929135
 20
3.961104
 30
0.0
  0
VERTEX
  5
2C7
100
AcDbEntity
  8
0
  6
CONTINUOUS
 62
     7
100
AcDbVertex
100
AcDb2dVertex
 10
4.131593
 20
4.629012
 30
0.0
  0
VERTEX
  5
2C8
100
AcDbEntity
  8
0
  6
CONTINUOUS
 62
     7
100
AcDbVertex
100
AcDb2dVertex
 10
4.135448
 20
4.656711
 30
0.0
  0
VERTEX
  5
2C9
100
AcDbEntity
  8
0
  6
CONTINUOUS
 62
     7
100
AcDbVertex
100
AcDb2dVertex
 10
4.022
 20
4.724557
 30
0.0
  0
VERTEX
  5
2CA
100
AcDbEntity
  8
0
  6
CONTINUOUS
 62
     7
100
AcDbVertex
100
AcDb2dVertex
 10
3.942416
 20
4.721137
 30
0.0
  0
VERTEX
  5
2CB
100
AcDbEntity
  8
0
  6
CONTINUOUS
 62
     7
100
AcDbVertex
100
AcDb2dVertex
 10
3.083744
 20
4.257953
 30
0.0
  0
VERTEX
  5
2CC
100
AcDbEntity
  8
0
  6
CONTINUOUS
 62
     7
100
AcDbVertex
100
AcDb2dVertex
 10
2.329254
 20
3.837417
 30
0.0
  0
VERTEX
  5
2CD
100
AcDbEntity
  8
0
  6
CONTINUOUS
 62
     7
100
AcDbVertex
100
AcDb2dVertex
 10
2.169228
 20
3.719524
 30
0.0
  0
VERTEX
  5
2CE
100
AcDbEntity
  8
0
  6
CONTINUOUS
 62
     7
100
AcDbVertex
100
AcDb2dVertex
 10
2.094248
 20
3.62715
 30
0.0
  0
VERTEX
  5
2CF
100
AcDbEntity
  8
0
  6
CONTINUOUS
 62
     7
100
AcDbVertex
100
AcDb2dVertex
 10
2.059986
 20
3.515924
 30
0.0
  0
VERTEX
  5
2D0
100
AcDbEntity
  8
0
  6
CONTINUOUS
 62
     7
100
AcDbVertex
100
AcDb2dVertex
 10
2.020036
 20
3.364315
 30
0.0
  0
VERTEX
  5
2D1
100
AcDbEntity
  8
0
  6
CONTINUOUS
 62
     7
100
AcDbVertex
100
AcDb2dVertex
 10
1.988076
 20
3.196891
 30
0.0
  0
VERTEX
  5
2D2
100
AcDbEntity
  8
0
  6
CONTINUOUS
 62
     7
100
AcDbVertex
100
AcDb2dVertex
 10
1.933455
 20
3.082927
 30
0.0
  0
VERTEX
  5
2D3
100
AcDbEntity
  8
0
  6
CONTINUOUS
 62
     7
100
AcDbVertex
100
AcDb2dVertex
 10
1.859243
 20
3.05819
 30
0.0
  0
VERTEX
  5
2D4
100
AcDbEntity
  8
0
  6
CONTINUOUS
 62
     7
100
AcDbVertex
100
AcDb2dVertex
 10
1.809768
 20
3.089111
 30
0.0
  0
VERTEX
  5
2D5
100
AcDbEntity
  8
0
  6
CONTINUOUS
 62
     7
100
AcDbVertex
100
AcDb2dVertex
 10
1.800646
 20
3.141351
 30
0.0
  0
VERTEX
  5
2D6
100
AcDbEntity
  8
0
  6
CONTINUOUS
 62
     7
100
AcDbVertex
100
AcDb2dVertex
 10
1.809768
 20
3.305564
 30
0.0
  0
VERTEX
  5
2D7
100
AcDbEntity
  8
0
  6
CONTINUOUS
 62
     7
100
AcDbVertex
100
AcDb2dVertex
 10
1.790685
 20
3.440117
 30
0.0
  0
VERTEX
  5
2D8
100
AcDbEntity
  8
0
  6
CONTINUOUS
 62
     7
100
AcDbVertex
100
AcDb2dVertex
 10
1.723188
 20
3.565306
 30
0.0
  0
VERTEX
  5
2D9
100
AcDbEntity
  8
0
  6
CONTINUOUS
 62
     7
100
AcDbVertex
100
AcDb2dVertex
 10
1.637049
 20
3.676183
 30
0.0
  0
VERTEX
  5
2DA
100
AcDbEntity
  8
0
  6
CONTINUOUS
 62
     7
100
AcDbVertex
100
AcDb2dVertex
 10
1.51292
 20
3.775574
 30
0.0
  0
VERTEX
  5
2DB
100
AcDbEntity
  8
0
  6
CONTINUOUS
 62
     7
100
AcDbVertex
100
AcDb2dVertex
 10
1.366086
 20
3.836887
 30
0.0
  0
VERTEX
  5
2DC
100
AcDbEntity
  8
0
  6
CONTINUOUS
 62
     7
100
AcDbVertex
100
AcDb2dVertex
 10
1.216071
 20
3.874523
 30
0.0
  0
VERTEX
  5
2DD
100
AcDbEntity
  8
0
  6
CONTINUOUS
 62
     7
100
AcDbVertex
100
AcDb2dVertex
 10
1.067647
 20
3.880708
 30
0.0
  0
VERTEX
  5
2DE
100
AcDbEntity
  8
0
  6
CONTINUOUS
 62
     7
100
AcDbVertex
100
AcDb2dVertex
 10
1.025022
 20
3.904325
 30
0.0
  0
VERTEX
  5
2DF
100
AcDbEntity
  8
0
  6
CONTINUOUS
 62
     7
100
AcDbVertex
100
AcDb2dVertex
 10
1.01508
 20
3.958012
 30
0.0
  0
VERTEX
  5
2E0
100
AcDbEntity
  8
0
  6
CONTINUOUS
 62
     7
100
AcDbVertex
100
AcDb2dVertex
 10
1.067647
 20
4.022948
 30
0.0
  0
VERTEX
  5
2E1
100
AcDbEntity
  8
0
  6
CONTINUOUS
 62
     7
100
AcDbVertex
100
AcDb2dVertex
 10
1.179945
 20
4.04822
 30
0.0
  0
VERTEX
  5
2E2
100
AcDbEntity
  8
0
  6
CONTINUOUS
 62
     7
100
AcDbVertex
100
AcDb2dVertex
 10
1.327389
 20
4.047685
 30
0.0
  0
VERTEX
  5
2E3
100
AcDbEntity
  8
0
  6
CONTINUOUS
 62
     7
100
AcDbVertex
100
AcDb2dVertex
 10
1.524396
 20
4.006757
 30
0.0
  0
VERTEX
  5
2E4
100
AcDbEntity
  8
0
  6
CONTINUOUS
 62
     7
100
AcDbVertex
100
AcDb2dVertex
 10
1.7974
 20
3.985842
 30
0.0
  0
VERTEX
  5
2E5
100
AcDbEntity
  8
0
  6
CONTINUOUS
 62
     7
100
AcDbVertex
100
AcDb2dVertex
 10
2.020036
 20
4.022948
 30
0.0
  0
VERTEX
  5
2E6
100
AcDbEntity
  8
0
  6
CONTINUOUS
 62
     7
100
AcDbVertex
100
AcDb2dVertex
 10
2.403466
 20
4.183741
 30
0.0
  0
VERTEX
  5
2E7
100
AcDbEntity
  8
0
  6
CONTINUOUS
 62
     7
100
AcDbVertex
100
AcDb2dVertex
 10
3.544592
 20
4.821072
 30
0.0
  0
VERTEX
  5
2E8
100
AcDbEntity
  8
0
  6
CONTINUOUS
 62
     7
100
AcDbVertex
100
AcDb2dVertex
 10
3.550679
 20
4.860747
 30
0.0
  0
VERTEX
  5
2E9
100
AcDbEntity
  8
0
  6
CONTINUOUS
 62
     7
100
AcDbVertex
100
AcDb2dVertex
 10
3.456202
 20
4.926587
 30
0.0
  0
SEQEND
  5
2EA
100
AcDbEntity
  8
0
  6
CONTINUOUS
 62
     7
  0
POLYLINE
  5
2EB
100
AcDbEntity
  8
0
  6
CONTINUOUS
 62
     7
100
AcDb2dPolyline
 66
     1
 10
0.0
 20
0.0
 30
0.0
 70
     1
  0
VERTEX
  5
2EC
100
AcDbEntity
  8
0
  6
CONTINUOUS
 62
     7
100
AcDbVertex
100
AcDb2dVertex
 10
4.969616
 20
5.094494
 30
0.0
  0
VERTEX
  5
2ED
100
AcDbEntity
  8
0
  6
CONTINUOUS
 62
     7
100
AcDbVertex
100
AcDb2dVertex
 10
5.625055
 20
5.458559
 30
0.0
  0
VERTEX
  5
2EE
100
AcDbEntity
  8
0
  6
CONTINUOUS
 62
     7
100
AcDbVertex
100
AcDb2dVertex
 10
5.845673
 20
5.577693
 30
0.0
  0
VERTEX
  5
2EF
100
AcDbEntity
  8
0
  6
CONTINUOUS
 62
     7
100
AcDbVertex
100
AcDb2dVertex
 10
6.191997
 20
5.763223
 30
0.0
  0
VERTEX
  5
2F0
100
AcDbEntity
  8
0
  6
CONTINUOUS
 62
     7
100
AcDbVertex
100
AcDb2dVertex
 10
6.427002
 20
5.862173
 30
0.0
  0
VERTEX
  5
2F1
100
AcDbEntity
  8
0
  6
CONTINUOUS
 62
     7
100
AcDbVertex
100
AcDb2dVertex
 10
6.575426
 20
5.899279
 30
0.0
  0
VERTEX
  5
2F2
100
AcDbEntity
  8
0
  6
CONTINUOUS
 62
     7
100
AcDbVertex
100
AcDb2dVertex
 10
6.717666
 20
5.88691
 30
0.0
  0
VERTEX
  5
2F3
100
AcDbEntity
  8
0
  6
CONTINUOUS
 62
     7
100
AcDbVertex
100
AcDb2dVertex
 10
6.96504
 20
5.825066
 30
0.0
  0
VERTEX
  5
2F4
100
AcDbEntity
  8
0
  6
CONTINUOUS
 62
     7
100
AcDbVertex
100
AcDb2dVertex
 10
7.144386
 20
5.800329
 30
0.0
  0
VERTEX
  5
2F5
100
AcDbEntity
  8
0
  6
CONTINUOUS
 62
     7
100
AcDbVertex
100
AcDb2dVertex
 10
7.280442
 20
5.812698
 30
0.0
  0
VERTEX
  5
2F6
100
AcDbEntity
  8
0
  6
CONTINUOUS
 62
     7
100
AcDbVertex
100
AcDb2dVertex
 10
7.379391
 20
5.849804
 30
0.0
  0
VERTEX
  5
2F7
100
AcDbEntity
  8
0
  6
CONTINUOUS
 62
     7
100
AcDbVertex
100
AcDb2dVertex
 10
7.484525
 20
5.924016
 30
0.0
  0
VERTEX
  5
2F8
100
AcDbEntity
  8
0
  6
CONTINUOUS
 62
     7
100
AcDbVertex
100
AcDb2dVertex
 10
7.552553
 20
6.010597
 30
0.0
  0
VERTEX
  5
2F9
100
AcDbEntity
  8
0
  6
CONTINUOUS
 62
     7
100
AcDbVertex
100
AcDb2dVertex
 10
7.640276
 20
6.146007
 30
0.0
  0
VERTEX
  5
2FA
100
AcDbEntity
  8
0
  6
CONTINUOUS
 62
     7
100
AcDbVertex
100
AcDb2dVertex
 10
7.69719
 20
6.261502
 30
0.0
  0
VERTEX
  5
2FB
100
AcDbEntity
  8
0
  6
CONTINUOUS
 62
     7
100
AcDbVertex
100
AcDb2dVertex
 10
7.77519
 20
6.443501
 30
0.0
  0
VERTEX
  5
2FC
100
AcDbEntity
  8
0
  6
CONTINUOUS
 62
     7
100
AcDbVertex
100
AcDb2dVertex
 10
7.849402
 20
6.678506
 30
0.0
  0
VERTEX
  5
2FD
100
AcDbEntity
  8
0
  6
CONTINUOUS
 62
     7
100
AcDbVertex
100
AcDb2dVertex
 10
7.824664
 20
6.746534
 30
0.0
  0
VERTEX
  5
2FE
100
AcDbEntity
  8
0
  6
CONTINUOUS
 62
     7
100
AcDbVertex
100
AcDb2dVertex
 10
7.787558
 20
6.765087
 30
0.0
  0
VERTEX
  5
2FF
100
AcDbEntity
  8
0
  6
CONTINUOUS
 62
     7
100
AcDbVertex
100
AcDb2dVertex
 10
7.367023
 20
6.35692
 30
0.0
  0
VERTEX
  5
300
100
AcDbEntity
  8
0
  6
CONTINUOUS
 62
     7
100
AcDbVertex
100
AcDb2dVertex
 10
7.29281
 20
6.332183
 30
0.0
  0
VERTEX
  5
301
100
AcDbEntity
  8
0
  6
CONTINUOUS
 62
     7
100
AcDbVertex
100
AcDb2dVertex
 10
7.169124
 20
6.35692
 30
0.0
  0
VERTEX
  5
302
100
AcDbEntity
  8
0
  6
CONTINUOUS
 62
     7
100
AcDbVertex
100
AcDb2dVertex
 10
6.983593
 20
6.45587
 30
0.0
  0
VERTEX
  5
303
100
AcDbEntity
  8
0
  6
CONTINUOUS
 62
     7
100
AcDbVertex
100
AcDb2dVertex
 10
6.859906
 20
6.616663
 30
0.0
  0
VERTEX
  5
304
100
AcDbEntity
  8
0
  6
CONTINUOUS
 62
     7
100
AcDbVertex
100
AcDb2dVertex
 10
6.791878
 20
6.74035
 30
0.0
  0
VERTEX
  5
305
100
AcDbEntity
  8
0
  6
CONTINUOUS
 62
     7
100
AcDbVertex
100
AcDb2dVertex
 10
6.773325
 20
6.839299
 30
0.0
  0
VERTEX
  5
306
100
AcDbEntity
  8
0
  6
CONTINUOUS
 62
     7
100
AcDbVertex
100
AcDb2dVertex
 10
6.785694
 20
6.944433
 30
0.0
  0
VERTEX
  5
307
100
AcDbEntity
  8
0
  6
CONTINUOUS
 62
     7
100
AcDbVertex
100
AcDb2dVertex
 10
6.810431
 20
6.993908
 30
0.0
  0
VERTEX
  5
308
100
AcDbEntity
  8
0
  6
CONTINUOUS
 62
     7
100
AcDbVertex
100
AcDb2dVertex
 10
7.212414
 20
7.408259
 30
0.0
  0
VERTEX
  5
309
100
AcDbEntity
  8
0
  6
CONTINUOUS
 62
     7
100
AcDbVertex
100
AcDb2dVertex
 10
7.193861
 20
7.445365
 30
0.0
  0
VERTEX
  5
30A
100
AcDbEntity
  8
0
  6
CONTINUOUS
 62
     7
100
AcDbVertex
100
AcDb2dVertex
 10
6.816616
 20
7.383522
 30
0.0
  0
VERTEX
  5
30B
100
AcDbEntity
  8
0
  6
CONTINUOUS
 62
     7
100
AcDbVertex
100
AcDb2dVertex
 10
6.662007
 20
7.340231
 30
0.0
  0
VERTEX
  5
30C
100
AcDbEntity
  8
0
  6
CONTINUOUS
 62
     7
100
AcDbVertex
100
AcDb2dVertex
 10
6.563402
 20
7.291123
 30
0.0
  0
VERTEX
  5
30D
100
AcDbEntity
  8
0
  6
CONTINUOUS
 62
     7
100
AcDbVertex
100
AcDb2dVertex
 10
6.464108
 20
7.222729
 30
0.0
  0
VERTEX
  5
30E
100
AcDbEntity
  8
0
  6
CONTINUOUS
 62
     7
100
AcDbVertex
100
AcDb2dVertex
 10
6.340421
 20
7.099042
 30
0.0
  0
VERTEX
  5
30F
100
AcDbEntity
  8
0
  6
CONTINUOUS
 62
     7
100
AcDbVertex
100
AcDb2dVertex
 10
6.266209
 20
6.92588
 30
0.0
  0
VERTEX
  5
310
100
AcDbEntity
  8
0
  6
CONTINUOUS
 62
     7
100
AcDbVertex
100
AcDb2dVertex
 10
6.241471
 20
6.727981
 30
0.0
  0
VERTEX
  5
311
100
AcDbEntity
  8
0
  6
CONTINUOUS
 62
     7
100
AcDbVertex
100
AcDb2dVertex
 10
6.204365
 20
6.629032
 30
0.0
  0
VERTEX
  5
312
100
AcDbEntity
  8
0
  6
CONTINUOUS
 62
     7
100
AcDbVertex
100
AcDb2dVertex
 10
6.123969
 20
6.530082
 30
0.0
  0
VERTEX
  5
313
100
AcDbEntity
  8
0
  6
CONTINUOUS
 62
     7
100
AcDbVertex
100
AcDb2dVertex
 10
5.944623
 20
6.381658
 30
0.0
  0
VERTEX
  5
314
100
AcDbEntity
  8
0
  6
CONTINUOUS
 62
     7
100
AcDbVertex
100
AcDb2dVertex
 10
5.771461
 20
6.245602
 30
0.0
  0
VERTEX
  5
315
100
AcDbEntity
  8
0
  6
CONTINUOUS
 62
     7
100
AcDbVertex
100
AcDb2dVertex
 10
5.480797
 20
6.084809
 30
0.0
  0
VERTEX
  5
316
100
AcDbEntity
  8
0
  6
CONTINUOUS
 62
     7
100
AcDbVertex
100
AcDb2dVertex
 10
5.041708
 20
5.837435
 30
0.0
  0
VERTEX
  5
317
100
AcDbEntity
  8
0
  6
CONTINUOUS
 62
     7
100
AcDbVertex
100
AcDb2dVertex
 10
4.411559
 20
5.488732
 30
0.0
  0
VERTEX
  5
318
100
AcDbEntity
  8
0
  6
CONTINUOUS
 62
     7
100
AcDbVertex
100
AcDb2dVertex
 10
4.39848
 20
5.448252
 30
0.0
  0
VERTEX
  5
319
100
AcDbEntity
  8
0
  6
CONTINUOUS
 62
     7
100
AcDbVertex
100
AcDb2dVertex
 10
4.482067
 20
5.368424
 30
0.0
  0
VERTEX
  5
31A
100
AcDbEntity
  8
0
  6
CONTINUOUS
 62
     7
100
AcDbVertex
100
AcDb2dVertex
 10
4.520776
 20
5.366281
 30
0.0
  0
VERTEX
  5
31B
100
AcDbEntity
  8
0
  6
CONTINUOUS
 62
     7
100
AcDbVertex
100
AcDb2dVertex
 10
5.891437
 20
6.13181
 30
0.0
  0
VERTEX
  5
31C
100
AcDbEntity
  8
0
  6
CONTINUOUS
 62
     7
100
AcDbVertex
100
AcDb2dVertex
 10
6.05223
 20
6.243128
 30
0.0
  0
VERTEX
  5
31D
100
AcDbEntity
  8
0
  6
CONTINUOUS
 62
     7
100
AcDbVertex
100
AcDb2dVertex
 10
6.283845
 20
6.458094
 30
0.0
  0
VERTEX
  5
31E
100
AcDbEntity
  8
0
  6
CONTINUOUS
 62
     7
100
AcDbVertex
100
AcDb2dVertex
 10
6.362388
 20
6.575392
 30
0.0
  0
VERTEX
  5
31F
100
AcDbEntity
  8
0
  6
CONTINUOUS
 62
     7
100
AcDbVertex
100
AcDb2dVertex
 10
6.410923
 20
6.719323
 30
0.0
  0
VERTEX
  5
320
100
AcDbEntity
  8
0
  6
CONTINUOUS
 62
     7
100
AcDbVertex
100
AcDb2dVertex
 10
6.448029
 20
6.904853
 30
0.0
  0
VERTEX
  5
321
100
AcDbEntity
  8
0
  6
CONTINUOUS
 62
     7
100
AcDbVertex
100
AcDb2dVertex
 10
6.477495
 20
6.959639
 30
0.0
  0
VERTEX
  5
322
100
AcDbEntity
  8
0
  6
CONTINUOUS
 62
     7
100
AcDbVertex
100
AcDb2dVertex
 10
6.522241
 20
6.966697
 30
0.0
  0
VERTEX
  5
323
100
AcDbEntity
  8
0
  6
CONTINUOUS
 62
     7
100
AcDbVertex
100
AcDb2dVertex
 10
6.563905
 20
6.939111
 30
0.0
  0
VERTEX
  5
324
100
AcDbEntity
  8
0
  6
CONTINUOUS
 62
     7
100
AcDbVertex
100
AcDb2dVertex
 10
6.584084
 20
6.8863
 30
0.0
  0
VERTEX
  5
325
100
AcDbEntity
  8
0
  6
CONTINUOUS
 62
     7
100
AcDbVertex
100
AcDb2dVertex
 10
6.596453
 20
6.773745
 30
0.0
  0
VERTEX
  5
326
100
AcDbEntity
  8
0
  6
CONTINUOUS
 62
     7
100
AcDbVertex
100
AcDb2dVertex
 10
6.608822
 20
6.620373
 30
0.0
  0
VERTEX
  5
327
100
AcDbEntity
  8
0
  6
CONTINUOUS
 62
     7
100
AcDbVertex
100
AcDb2dVertex
 10
6.658296
 20
6.478133
 30
0.0
  0
VERTEX
  5
328
100
AcDbEntity
  8
0
  6
CONTINUOUS
 62
     7
100
AcDbVertex
100
AcDb2dVertex
 10
6.713191
 20
6.404339
 30
0.0
  0
VERTEX
  5
329
100
AcDbEntity
  8
0
  6
CONTINUOUS
 62
     7
100
AcDbVertex
100
AcDb2dVertex
 10
6.768102
 20
6.352134
 30
0.0
  0
VERTEX
  5
32A
100
AcDbEntity
  8
0
  6
CONTINUOUS
 62
     7
100
AcDbVertex
100
AcDb2dVertex
 10
6.849652
 20
6.305318
 30
0.0
  0
VERTEX
  5
32B
100
AcDbEntity
  8
0
  6
CONTINUOUS
 62
     7
100
AcDbVertex
100
AcDb2dVertex
 10
6.936592
 20
6.261681
 30
0.0
  0
VERTEX
  5
32C
100
AcDbEntity
  8
0
  6
CONTINUOUS
 62
     7
100
AcDbVertex
100
AcDb2dVertex
 10
7.109754
 20
6.190561
 30
0.0
  0
VERTEX
  5
32D
100
AcDbEntity
  8
0
  6
CONTINUOUS
 62
     7
100
AcDbVertex
100
AcDb2dVertex
 10
7.22981
 20
6.141197
 30
0.0
  0
VERTEX
  5
32E
100
AcDbEntity
  8
0
  6
CONTINUOUS
 62
     7
100
AcDbVertex
100
AcDb2dVertex
 10
7.251994
 20
6.076151
 30
0.0
  0
VERTEX
  5
32F
100
AcDbEntity
  8
0
  6
CONTINUOUS
 62
     7
100
AcDbVertex
100
AcDb2dVertex
 10
7.221072
 20
6.020492
 30
0.0
  0
VERTEX
  5
330
100
AcDbEntity
  8
0
  6
CONTINUOUS
 62
     7
100
AcDbVertex
100
AcDb2dVertex
 10
7.115851
 20
5.996717
 30
0.0
  0
VERTEX
  5
331
100
AcDbEntity
  8
0
  6
CONTINUOUS
 62
     7
100
AcDbVertex
100
AcDb2dVertex
 10
6.911855
 20
6.020492
 30
0.0
  0
VERTEX
  5
332
100
AcDbEntity
  8
0
  6
CONTINUOUS
 62
     7
100
AcDbVertex
100
AcDb2dVertex
 10
6.695403
 20
6.051414
 30
0.0
  0
VERTEX
  5
333
100
AcDbEntity
  8
0
  6
CONTINUOUS
 62
     7
100
AcDbVertex
100
AcDb2dVertex
 10
6.504443
 20
6.050953
 30
0.0
  0
VERTEX
  5
334
100
AcDbEntity
  8
0
  6
CONTINUOUS
 62
     7
100
AcDbVertex
100
AcDb2dVertex
 10
6.311973
 20
5.983386
 30
0.0
  0
VERTEX
  5
335
100
AcDbEntity
  8
0
  6
CONTINUOUS
 62
     7
100
AcDbVertex
100
AcDb2dVertex
 10
6.064599
 20
5.865883
 30
0.0
  0
VERTEX
  5
336
100
AcDbEntity
  8
0
  6
CONTINUOUS
 62
     7
100
AcDbVertex
100
AcDb2dVertex
 10
4.843183
 20
5.207028
 30
0.0
  0
VERTEX
  5
337
100
AcDbEntity
  8
0
  6
CONTINUOUS
 62
     7
100
AcDbVertex
100
AcDb2dVertex
 10
4.83081
 20
5.159316
 30
0.0
  0
VERTEX
  5
338
100
AcDbEntity
  8
0
  6
CONTINUOUS
 62
     7
100
AcDbVertex
100
AcDb2dVertex
 10
4.907264
 20
5.087843
 30
0.0
  0
SEQEND
  5
339
100
AcDbEntity
  8
0
  6
CONTINUOUS
 62
     7
  0
SOLID
  5
33A
100
AcDbEntity
  8
0
 62
     7
100
AcDbTrace
 10
4.343872
 20
9.379142
 30
0.0
 11
4.4096
 21
9.356508
 31
0.0
 12
4.460316
 22
9.310522
 32
0.0
 13
4.460316
 23
9.310522
 33
0.0
  0
SOLID
  5
33B
100
AcDbEntity
  8
0
 62
     7
100
AcDbTrace
 10
4.343872
 20
9.379142
 30
0.0
 11
4.460316
 21
9.310522
 31
0.0
 12
4.465518
 22
9.204151
 32
0.0
 13
4.465518
 23
9.204151
 33
0.0
  0
SOLID
  5
33C
100
AcDbEntity
  8
0
 62
     7
100
AcDbTrace
 10
4.343872
 20
9.379142
 30
0.0
 11
4.465518
 21
9.204151
 31
0.0
 12
4.416239
 22
9.088653
 32
0.0
 13
4.416239
 23
9.088653
 33
0.0
  0
SOLID
  5
33D
100
AcDbEntity
  8
0
 62
     7
100
AcDbTrace
 10
4.343872
 20
9.379142
 30
0.0
 11
4.416239
 21
9.088653
 31
0.0
 12
4.348478
 22
9.020718
 32
0.0
 13
4.348478
 23
9.020718
 33
0.0
  0
SOLID
  5
33E
100
AcDbEntity
  8
0
 62
     7
100
AcDbTrace
 10
4.343872
 20
9.379142
 30
0.0
 11
4.348478
 21
9.020718
 31
0.0
 12
4.283853
 22
9.020788
 32
0.0
 13
4.283853
 23
9.020788
 33
0.0
  0
SOLID
  5
33F
100
AcDbEntity
  8
0
 62
     7
100
AcDbTrace
 10
4.343872
 20
9.379142
 30
0.0
 11
4.283853
 21
9.020788
 31
0.0
 12
4.276497
 22
9.369385
 32
0.0
 13
4.276497
 23
9.369385
 33
0.0
  0
POLYLINE
  5
340
100
AcDbEntity
  8
0
  6
CONTINUOUS
 62
     7
100
AcDb2dPolyline
 66
     1
 10
0.0
 20
0.0
 30
0.0
 70
     1
  0
VERTEX
  5
341
100
AcDbEntity
  8
0
  6
CONTINUOUS
 62
     7
100
AcDbVertex
100
AcDb2dVertex
 10
4.276497
 20
9.369385
 30
0.0
  0
VERTEX
  5
342
100
AcDbEntity
  8
0
  6
CONTINUOUS
 62
     7
100
AcDbVertex
100
AcDb2dVertex
 10
4.343872
 20
9.379142
 30
0.0
  0
VERTEX
  5
343
100
AcDbEntity
  8
0
  6
CONTINUOUS
 62
     7
100
AcDbVertex
100
AcDb2dVertex
 10
4.4096
 20
9.356508
 30
0.0
  0
VERTEX
  5
344
100
AcDbEntity
  8
0
  6
CONTINUOUS
 62
     7
100
AcDbVertex
100
AcDb2dVertex
 10
4.460316
 20
9.310522
 30
0.0
  0
VERTEX
  5
345
100
AcDbEntity
  8
0
  6
CONTINUOUS
 62
     7
100
AcDbVertex
100
AcDb2dVertex
 10
4.465518
 20
9.204151
 30
0.0
  0
VERTEX
  5
346
100
AcDbEntity
  8
0
  6
CONTINUOUS
 62
     7
100
AcDbVertex
100
AcDb2dVertex
 10
4.416239
 20
9.088653
 30
0.0
  0
VERTEX
  5
347
100
AcDbEntity
  8
0
  6
CONTINUOUS
 62
     7
100
AcDbVertex
100
AcDb2dVertex
 10
4.348478
 20
9.020718
 30
0.0
  0
VERTEX
  5
348
100
AcDbEntity
  8
0
  6
CONTINUOUS
 62
     7
100
AcDbVertex
100
AcDb2dVertex
 10
4.283853
 20
9.020788
 30
0.0
  0
SEQEND
  5
349
100
AcDbEntity
  8
0
  6
CONTINUOUS
 62
     7
  0
SOLID
  5
34A
100
AcDbEntity
  8
0
 62
     7
100
AcDbTrace
 10
4.885803
 20
9.92585
 30
0.0
 11
4.882982
 21
9.851397
 31
0.0
 12
4.932208
 22
9.769797
 32
0.0
 13
4.932208
 23
9.769797
 33
0.0
  0
SOLID
  5
34B
100
AcDbEntity
  8
0
 62
     7
100
AcDbTrace
 10
4.885803
 20
9.92585
 30
0.0
 11
4.932208
 21
9.769797
 31
0.0
 12
4.994871
 22
9.743782
 32
0.0
 13
4.994871
 23
9.743782
 33
0.0
  0
SOLID
  5
34C
100
AcDbEntity
  8
0
 62
     7
100
AcDbTrace
 10
4.885803
 20
9.92585
 30
0.0
 11
4.994871
 21
9.743782
 31
0.0
 12
5.085283
 22
9.744973
 32
0.0
 13
5.085283
 23
9.744973
 33
0.0
  0
SOLID
  5
34D
100
AcDbEntity
  8
0
 62
     7
100
AcDbTrace
 10
4.885803
 20
9.92585
 30
0.0
 11
5.085283
 21
9.744973
 31
0.0
 12
5.169791
 22
9.800803
 32
0.0
 13
5.169791
 23
9.800803
 33
0.0
  0
SOLID
  5
34E
100
AcDbEntity
  8
0
 62
     7
100
AcDbTrace
 10
4.885803
 20
9.92585
 30
0.0
 11
5.169791
 21
9.800803
 31
0.0
 12
5.232437
 22
9.907261
 32
0.0
 13
5.232437
 23
9.907261
 33
0.0
  0
SOLID
  5
34F
100
AcDbEntity
  8
0
 62
     7
100
AcDbTrace
 10
4.885803
 20
9.92585
 30
0.0
 11
5.232437
 21
9.907261
 31
0.0
 12
5.250586
 22
9.998619
 32
0.0
 13
5.250586
 23
9.998619
 33
0.0
  0
SOLID
  5
350
100
AcDbEntity
  8
0
 62
     7
100
AcDbTrace
 10
4.885803
 20
9.92585
 30
0.0
 11
5.250586
 21
9.998619
 31
0.0
 12
5.240987
 22
10.062771
 32
0.0
 13
5.240987
 23
10.062771
 33
0.0
  0
SOLID
  5
351
100
AcDbEntity
  8
0
 62
     7
100
AcDbTrace
 10
4.885803
 20
9.92585
 30
0.0
 11
5.240987
 21
10.062771
 31
0.0
 12
5.209139
 22
10.119373
 32
0.0
 13
5.209139
 23
10.119373
 33
0.0
  0
SOLID
  5
352
100
AcDbEntity
  8
0
 62
     7
100
AcDbTrace
 10
4.885803
 20
9.92585
 30
0.0
 11
5.209139
 21
10.119373
 31
0.0
 12
5.146634
 22
10.142164
 32
0.0
 13
5.146634
 23
10.142164
 33
0.0
  0
SOLID
  5
353
100
AcDbEntity
  8
0
 62
     7
100
AcDbTrace
 10
4.885803
 20
9.92585
 30
0.0
 11
5.146634
 21
10.142164
 31
0.0
 12
5.062668
 22
10.141289
 32
0.0
 13
5.062668
 23
10.141289
 33
0.0
  0
SOLID
  5
354
100
AcDbEntity
  8
0
 62
     7
100
AcDbTrace
 10
4.885803
 20
9.92585
 30
0.0
 11
5.062668
 21
10.141289
 31
0.0
 12
4.981226
 22
10.08884
 32
0.0
 13
4.981226
 23
10.08884
 33
0.0
  0
SOLID
  5
355
100
AcDbEntity
  8
0
 62
     7
100
AcDbTrace
 10
4.885803
 20
9.92585
 30
0.0
 11
4.981226
 21
10.08884
 31
0.0
 12
4.919911
 22
10.021219
 32
0.0
 13
4.919911
 23
10.021219
 33
0.0
  0
POLYLINE
  5
356
100
AcDbEntity
  8
0
  6
CONTINUOUS
 62
     7
100
AcDb2dPolyline
 66
     1
 10
0.0
 20
0.0
 30
0.0
 70
     1
  0
VERTEX
  5
357
100
AcDbEntity
  8
0
  6
CONTINUOUS
 62
     7
100
AcDbVertex
100
AcDb2dVertex
 10
4.919911
 20
10.021219
 30
0.0
  0
VERTEX
  5
358
100
AcDbEntity
  8
0
  6
CONTINUOUS
 62
     7
100
AcDbVertex
100
AcDb2dVertex
 10
4.885803
 20
9.92585
 30
0.0
  0
VERTEX
  5
359
100
AcDbEntity
  8
0
  6
CONTINUOUS
 62
     7
100
AcDbVertex
100
AcDb2dVertex
 10
4.882982
 20
9.851397
 30
0.0
  0
VERTEX
  5
35A
100
AcDbEntity
  8
0
  6
CONTINUOUS
 62
     7
100
AcDbVertex
100
AcDb2dVertex
 10
4.932208
 20
9.769797
 30
0.0
  0
VERTEX
  5
35B
100
AcDbEntity
  8
0
  6
CONTINUOUS
 62
     7
100
AcDbVertex
100
AcDb2dVertex
 10
4.994871
 20
9.743782
 30
0.0
  0
VERTEX
  5
35C
100
AcDbEntity
  8
0
  6
CONTINUOUS
 62
     7
100
AcDbVertex
100
AcDb2dVertex
 10
5.085283
 20
9.744973
 30
0.0
  0
VERTEX
  5
35D
100
AcDbEntity
  8
0
  6
CONTINUOUS
 62
     7
100
AcDbVertex
100
AcDb2dVertex
 10
5.169791
 20
9.800803
 30
0.0
  0
VERTEX
  5
35E
100
AcDbEntity
  8
0
  6
CONTINUOUS
 62
     7
100
AcDbVertex
100
AcDb2dVertex
 10
5.232437
 20
9.907261
 30
0.0
  0
VERTEX
  5
35F
100
AcDbEntity
  8
0
  6
CONTINUOUS
 62
     7
100
AcDbVertex
100
AcDb2dVertex
 10
5.250586
 20
9.998619
 30
0.0
  0
VERTEX
  5
360
100
AcDbEntity
  8
0
  6
CONTINUOUS
 62
     7
100
AcDbVertex
100
AcDb2dVertex
 10
5.240987
 20
10.062771
 30
0.0
  0
VERTEX
  5
361
100
AcDbEntity
  8
0
  6
CONTINUOUS
 62
     7
100
AcDbVertex
100
AcDb2dVertex
 10
5.209139
 20
10.119373
 30
0.0
  0
VERTEX
  5
362
100
AcDbEntity
  8
0
  6
CONTINUOUS
 62
     7
100
AcDbVertex
100
AcDb2dVertex
 10
5.146634
 20
10.142164
 30
0.0
  0
VERTEX
  5
363
100
AcDbEntity
  8
0
  6
CONTINUOUS
 62
     7
100
AcDbVertex
100
AcDb2dVertex
 10
5.062668
 20
10.141289
 30
0.0
  0
VERTEX
  5
364
100
AcDbEntity
  8
0
  6
CONTINUOUS
 62
     7
100
AcDbVertex
100
AcDb2dVertex
 10
4.981226
 20
10.08884
 30
0.0
  0
SEQEND
  5
365
100
AcDbEntity
  8
0
  6
CONTINUOUS
 62
     7
  0
SOLID
  5
366
100
AcDbEntity
  8
0
 62
     7
100
AcDbTrace
 10
5.742919
 20
9.841758
 30
0.0
 11
5.772648
 21
9.762435
 31
0.0
 12
5.825255
 22
9.677769
 32
0.0
 13
5.825255
 23
9.677769
 33
0.0
  0
SOLID
  5
367
100
AcDbEntity
  8
0
 62
     7
100
AcDbTrace
 10
5.742919
 20
9.841758
 30
0.0
 11
5.825255
 21
9.677769
 31
0.0
 12
5.894995
 22
9.639176
 32
0.0
 13
5.894995
 23
9.639176
 33
0.0
  0
SOLID
  5
368
100
AcDbEntity
  8
0
 62
     7
100
AcDbTrace
 10
5.742919
 20
9.841758
 30
0.0
 11
5.894995
 21
9.639176
 31
0.0
 12
5.969763
 22
9.629908
 32
0.0
 13
5.969763
 23
9.629908
 33
0.0
  0
SOLID
  5
369
100
AcDbEntity
  8
0
 62
     7
100
AcDbTrace
 10
5.742919
 20
9.841758
 30
0.0
 11
5.969763
 21
9.629908
 31
0.0
 12
6.011789
 22
9.646121
 32
0.0
 13
6.011789
 23
9.646121
 33
0.0
  0
SOLID
  5
36A
100
AcDbEntity
  8
0
 62
     7
100
AcDbTrace
 10
5.742919
 20
9.841758
 30
0.0
 11
6.011789
 21
9.646121
 31
0.0
 12
6.042166
 22
9.668991
 32
0.0
 13
6.042166
 23
9.668991
 33
0.0
  0
SOLID
  5
36B
100
AcDbEntity
  8
0
 62
     7
100
AcDbTrace
 10
5.742919
 20
9.841758
 30
0.0
 11
6.042166
 21
9.668991
 31
0.0
 12
6.068496
 22
9.725207
 32
0.0
 13
6.068496
 23
9.725207
 33
0.0
  0
SOLID
  5
36C
100
AcDbEntity
  8
0
 62
     7
100
AcDbTrace
 10
5.742919
 20
9.841758
 30
0.0
 11
6.068496
 21
9.725207
 31
0.0
 12
6.074225
 22
9.806264
 32
0.0
 13
6.074225
 23
9.806264
 33
0.0
  0
SOLID
  5
36D
100
AcDbEntity
  8
0
 62
     7
100
AcDbTrace
 10
5.742919
 20
9.841758
 30
0.0
 11
6.074225
 21
9.806264
 31
0.0
 12
6.064152
 22
9.880086
 32
0.0
 13
6.064152
 23
9.880086
 33
0.0
  0
SOLID
  5
36E
100
AcDbEntity
  8
0
 62
     7
100
AcDbTrace
 10
5.742919
 20
9.841758
 30
0.0
 11
6.064152
 21
9.880086
 31
0.0
 12
6.035055
 22
9.946516
 32
0.0
 13
6.035055
 23
9.946516
 33
0.0
  0
SOLID
  5
36F
100
AcDbEntity
  8
0
 62
     7
100
AcDbTrace
 10
5.742919
 20
9.841758
 30
0.0
 11
6.035055
 21
9.946516
 31
0.0
 12
5.980486
 22
10.005237
 32
0.0
 13
5.980486
 23
10.005237
 33
0.0
  0
SOLID
  5
370
100
AcDbEntity
  8
0
 62
     7
100
AcDbTrace
 10
5.742919
 20
9.841758
 30
0.0
 11
5.980486
 21
10.005237
 31
0.0
 12
5.933624
 22
10.038487
 32
0.0
 13
5.933624
 23
10.038487
 33
0.0
  0
SOLID
  5
371
100
AcDbEntity
  8
0
 62
     7
100
AcDbTrace
 10
5.742919
 20
9.841758
 30
0.0
 11
5.933624
 21
10.038487
 31
0.0
 12
5.868054
 22
10.057898
 32
0.0
 13
5.868054
 23
10.057898
 33
0.0
  0
SOLID
  5
372
100
AcDbEntity
  8
0
 62
     7
100
AcDbTrace
 10
5.742919
 20
9.841758
 30
0.0
 11
5.868054
 21
10.057898
 31
0.0
 12
5.819095
 22
10.052906
 32
0.0
 13
5.819095
 23
10.052906
 33
0.0
  0
SOLID
  5
373
100
AcDbEntity
  8
0
 62
     7
100
AcDbTrace
 10
5.742919
 20
9.841758
 30
0.0
 11
5.819095
 21
10.052906
 31
0.0
 12
5.785192
 22
10.034459
 32
0.0
 13
5.785192
 23
10.034459
 33
0.0
  0
SOLID
  5
374
100
AcDbEntity
  8
0
 62
     7
100
AcDbTrace
 10
5.742919
 20
9.841758
 30
0.0
 11
5.785192
 21
10.034459
 31
0.0
 12
5.761139
 22
9.997741
 32
0.0
 13
5.761139
 23
9.997741
 33
0.0
  0
SOLID
  5
375
100
AcDbEntity
  8
0
 62
     7
100
AcDbTrace
 10
5.742919
 20
9.841758
 30
0.0
 11
5.761139
 21
9.997741
 31
0.0
 12
5.744321
 22
9.945221
 32
0.0
 13
5.744321
 23
9.945221
 33
0.0
  0
POLYLINE
  5
376
100
AcDbEntity
  8
0
  6
CONTINUOUS
 62
     7
100
AcDb2dPolyline
 66
     1
 10
0.0
 20
0.0
 30
0.0
 70
     1
  0
VERTEX
  5
377
100
AcDbEntity
  8
0
  6
CONTINUOUS
 62
     7
100
AcDbVertex
100
AcDb2dVertex
 10
5.744321
 20
9.945221
 30
0.0
  0
VERTEX
  5
378
100
AcDbEntity
  8
0
  6
CONTINUOUS
 62
     7
100
AcDbVertex
100
AcDb2dVertex
 10
5.742919
 20
9.841758
 30
0.0
  0
VERTEX
  5
379
100
AcDbEntity
  8
0
  6
CONTINUOUS
 62
     7
100
AcDbVertex
100
AcDb2dVertex
 10
5.772648
 20
9.762435
 30
0.0
  0
VERTEX
  5
37A
100
AcDbEntity
  8
0
  6
CONTINUOUS
 62
     7
100
AcDbVertex
100
AcDb2dVertex
 10
5.825255
 20
9.677769
 30
0.0
  0
VERTEX
  5
37B
100
AcDbEntity
  8
0
  6
CONTINUOUS
 62
     7
100
AcDbVertex
100
AcDb2dVertex
 10
5.894995
 20
9.639176
 30
0.0
  0
VERTEX
  5
37C
100
AcDbEntity
  8
0
  6
CONTINUOUS
 62
     7
100
AcDbVertex
100
AcDb2dVertex
 10
5.969763
 20
9.629908
 30
0.0
  0
VERTEX
  5
37D
100
AcDbEntity
  8
0
  6
CONTINUOUS
 62
     7
100
AcDbVertex
100
AcDb2dVertex
 10
6.011789
 20
9.646121
 30
0.0
  0
VERTEX
  5
37E
100
AcDbEntity
  8
0
  6
CONTINUOUS
 62
     7
100
AcDbVertex
100
AcDb2dVertex
 10
6.042166
 20
9.668991
 30
0.0
  0
VERTEX
  5
37F
100
AcDbEntity
  8
0
  6
CONTINUOUS
 62
     7
100
AcDbVertex
100
AcDb2dVertex
 10
6.068496
 20
9.725207
 30
0.0
  0
VERTEX
  5
380
100
AcDbEntity
  8
0
  6
CONTINUOUS
 62
     7
100
AcDbVertex
100
AcDb2dVertex
 10
6.074225
 20
9.806264
 30
0.0
  0
VERTEX
  5
381
100
AcDbEntity
  8
0
  6
CONTINUOUS
 62
     7
100
AcDbVertex
100
AcDb2dVertex
 10
6.064152
 20
9.880086
 30
0.0
  0
VERTEX
  5
382
100
AcDbEntity
  8
0
  6
CONTINUOUS
 62
     7
100
AcDbVertex
100
AcDb2dVertex
 10
6.035055
 20
9.946516
 30
0.0
  0
VERTEX
  5
383
100
AcDbEntity
  8
0
  6
CONTINUOUS
 62
     7
100
AcDbVertex
100
AcDb2dVertex
 10
5.980486
 20
10.005237
 30
0.0
  0
VERTEX
  5
384
100
AcDbEntity
  8
0
  6
CONTINUOUS
 62
     7
100
AcDbVertex
100
AcDb2dVertex
 10
5.933624
 20
10.038487
 30
0.0
  0
VERTEX
  5
385
100
AcDbEntity
  8
0
  6
CONTINUOUS
 62
     7
100
AcDbVertex
100
AcDb2dVertex
 10
5.868054
 20
10.057898
 30
0.0
  0
VERTEX
  5
386
100
AcDbEntity
  8
0
  6
CONTINUOUS
 62
     7
100
AcDbVertex
100
AcDb2dVertex
 10
5.819095
 20
10.052906
 30
0.0
  0
VERTEX
  5
387
100
AcDbEntity
  8
0
  6
CONTINUOUS
 62
     7
100
AcDbVertex
100
AcDb2dVertex
 10
5.785192
 20
10.034459
 30
0.0
  0
VERTEX
  5
388
100
AcDbEntity
  8
0
  6
CONTINUOUS
 62
     7
100
AcDbVertex
100
AcDb2dVertex
 10
5.761139
 20
9.997741
 30
0.0
  0
SEQEND
  5
389
100
AcDbEntity
  8
0
  6
CONTINUOUS
 62
     7
  0
SOLID
  5
38A
100
AcDbEntity
  8
0
 62
     7
100
AcDbTrace
 10
5.609184
 20
9.084223
 30
0.0
 11
5.638912
 21
9.0049
 31
0.0
 12
5.691519
 22
8.920234
 32
0.0
 13
5.691519
 23
8.920234
 33
0.0
  0
SOLID
  5
38B
100
AcDbEntity
  8
0
 62
     7
100
AcDbTrace
 10
5.609184
 20
9.084223
 30
0.0
 11
5.691519
 21
8.920234
 31
0.0
 12
5.761259
 22
8.881641
 32
0.0
 13
5.761259
 23
8.881641
 33
0.0
  0
SOLID
  5
38C
100
AcDbEntity
  8
0
 62
     7
100
AcDbTrace
 10
5.609184
 20
9.084223
 30
0.0
 11
5.761259
 21
8.881641
 31
0.0
 12
5.836027
 22
8.872373
 32
0.0
 13
5.836027
 23
8.872373
 33
0.0
  0
SOLID
  5
38D
100
AcDbEntity
  8
0
 62
     7
100
AcDbTrace
 10
5.609184
 20
9.084223
 30
0.0
 11
5.836027
 21
8.872373
 31
0.0
 12
5.878053
 22
8.888586
 32
0.0
 13
5.878053
 23
8.888586
 33
0.0
  0
SOLID
  5
38E
100
AcDbEntity
  8
0
 62
     7
100
AcDbTrace
 10
5.609184
 20
9.084223
 30
0.0
 11
5.878053
 21
8.888586
 31
0.0
 12
5.90843
 22
8.911456
 32
0.0
 13
5.90843
 23
8.911456
 33
0.0
  0
SOLID
  5
38F
100
AcDbEntity
  8
0
 62
     7
100
AcDbTrace
 10
5.609184
 20
9.084223
 30
0.0
 11
5.90843
 21
8.911456
 31
0.0
 12
5.93476
 22
8.967672
 32
0.0
 13
5.93476
 23
8.967672
 33
0.0
  0
SOLID
  5
390
100
AcDbEntity
  8
0
 62
     7
100
AcDbTrace
 10
5.609184
 20
9.084223
 30
0.0
 11
5.93476
 21
8.967672
 31
0.0
 12
5.940489
 22
9.048729
 32
0.0
 13
5.940489
 23
9.048729
 33
0.0
  0
SOLID
  5
391
100
AcDbEntity
  8
0
 62
     7
100
AcDbTrace
 10
5.609184
 20
9.084223
 30
0.0
 11
5.940489
 21
9.048729
 31
0.0
 12
5.930417
 22
9.122551
 32
0.0
 13
5.930417
 23
9.122551
 33
0.0
  0
SOLID
  5
392
100
AcDbEntity
  8
0
 62
     7
100
AcDbTrace
 10
5.609184
 20
9.084223
 30
0.0
 11
5.930417
 21
9.122551
 31
0.0
 12
5.901319
 22
9.188981
 32
0.0
 13
5.901319
 23
9.188981
 33
0.0
  0
SOLID
  5
393
100
AcDbEntity
  8
0
 62
     7
100
AcDbTrace
 10
5.609184
 20
9.084223
 30
0.0
 11
5.901319
 21
9.188981
 31
0.0
 12
5.84675
 22
9.247702
 32
0.0
 13
5.84675
 23
9.247702
 33
0.0
  0
SOLID
  5
394
100
AcDbEntity
  8
0
 62
     7
100
AcDbTrace
 10
5.609184
 20
9.084223
 30
0.0
 11
5.84675
 21
9.247702
 31
0.0
 12
5.799889
 22
9.280952
 32
0.0
 13
5.799889
 23
9.280952
 33
0.0
  0
SOLID
  5
395
100
AcDbEntity
  8
0
 62
     7
100
AcDbTrace
 10
5.609184
 20
9.084223
 30
0.0
 11
5.799889
 21
9.280952
 31
0.0
 12
5.734318
 22
9.300363
 32
0.0
 13
5.734318
 23
9.300363
 33
0.0
  0
SOLID
  5
396
100
AcDbEntity
  8
0
 62
     7
100
AcDbTrace
 10
5.609184
 20
9.084223
 30
0.0
 11
5.734318
 21
9.300363
 31
0.0
 12
5.685359
 22
9.295371
 32
0.0
 13
5.685359
 23
9.295371
 33
0.0
  0
SOLID
  5
397
100
AcDbEntity
  8
0
 62
     7
100
AcDbTrace
 10
5.609184
 20
9.084223
 30
0.0
 11
5.685359
 21
9.295371
 31
0.0
 12
5.651456
 22
9.276924
 32
0.0
 13
5.651456
 23
9.276924
 33
0.0
  0
SOLID
  5
398
100
AcDbEntity
  8
0
 62
     7
100
AcDbTrace
 10
5.609184
 20
9.084223
 30
0.0
 11
5.651456
 21
9.276924
 31
0.0
 12
5.627403
 22
9.240206
 32
0.0
 13
5.627403
 23
9.240206
 33
0.0
  0
SOLID
  5
399
100
AcDbEntity
  8
0
 62
     7
100
AcDbTrace
 10
5.609184
 20
9.084223
 30
0.0
 11
5.627403
 21
9.240206
 31
0.0
 12
5.610586
 22
9.187686
 32
0.0
 13
5.610586
 23
9.187686
 33
0.0
  0
POLYLINE
  5
39A
100
AcDbEntity
  8
0
  6
CONTINUOUS
 62
     7
100
AcDb2dPolyline
 66
     1
 10
0.0
 20
0.0
 30
0.0
 70
     1
  0
VERTEX
  5
39B
100
AcDbEntity
  8
0
  6
CONTINUOUS
 62
     7
100
AcDbVertex
100
AcDb2dVertex
 10
5.610586
 20
9.187686
 30
0.0
  0
VERTEX
  5
39C
100
AcDbEntity
  8
0
  6
CONTINUOUS
 62
     7
100
AcDbVertex
100
AcDb2dVertex
 10
5.609184
 20
9.084223
 30
0.0
  0
VERTEX
  5
39D
100
AcDbEntity
  8
0
  6
CONTINUOUS
 62
     7
100
AcDbVertex
100
AcDb2dVertex
 10
5.638912
 20
9.0049
 30
0.0
  0
VERTEX
  5
39E
100
AcDbEntity
  8
0
  6
CONTINUOUS
 62
     7
100
AcDbVertex
100
AcDb2dVertex
 10
5.691519
 20
8.920234
 30
0.0
  0
VERTEX
  5
39F
100
AcDbEntity
  8
0
  6
CONTINUOUS
 62
     7
100
AcDbVertex
100
AcDb2dVertex
 10
5.761259
 20
8.881641
 30
0.0
  0
VERTEX
  5
3A0
100
AcDbEntity
  8
0
  6
CONTINUOUS
 62
     7
100
AcDbVertex
100
AcDb2dVertex
 10
5.836027
 20
8.872373
 30
0.0
  0
VERTEX
  5
3A1
100
AcDbEntity
  8
0
  6
CONTINUOUS
 62
     7
100
AcDbVertex
100
AcDb2dVertex
 10
5.878053
 20
8.888586
 30
0.0
  0
VERTEX
  5
3A2
100
AcDbEntity
  8
0
  6
CONTINUOUS
 62
     7
100
AcDbVertex
100
AcDb2dVertex
 10
5.90843
 20
8.911456
 30
0.0
  0
VERTEX
  5
3A3
100
AcDbEntity
  8
0
  6
CONTINUOUS
 62
     7
100
AcDbVertex
100
AcDb2dVertex
 10
5.93476
 20
8.967672
 30
0.0
  0
VERTEX
  5
3A4
100
AcDbEntity
  8
0
  6
CONTINUOUS
 62
     7
100
AcDbVertex
100
AcDb2dVertex
 10
5.940489
 20
9.048729
 30
0.0
  0
VERTEX
  5
3A5
100
AcDbEntity
  8
0
  6
CONTINUOUS
 62
     7
100
AcDbVertex
100
AcDb2dVertex
 10
5.930417
 20
9.122551
 30
0.0
  0
VERTEX
  5
3A6
100
AcDbEntity
  8
0
  6
CONTINUOUS
 62
     7
100
AcDbVertex
100
AcDb2dVertex
 10
5.901319
 20
9.188981
 30
0.0
  0
VERTEX
  5
3A7
100
AcDbEntity
  8
0
  6
CONTINUOUS
 62
     7
100
AcDbVertex
100
AcDb2dVertex
 10
5.84675
 20
9.247702
 30
0.0
  0
VERTEX
  5
3A8
100
AcDbEntity
  8
0
  6
CONTINUOUS
 62
     7
100
AcDbVertex
100
AcDb2dVertex
 10
5.799889
 20
9.280952
 30
0.0
  0
VERTEX
  5
3A9
100
AcDbEntity
  8
0
  6
CONTINUOUS
 62
     7
100
AcDbVertex
100
AcDb2dVertex
 10
5.734318
 20
9.300363
 30
0.0
  0
VERTEX
  5
3AA
100
AcDbEntity
  8
0
  6
CONTINUOUS
 62
     7
100
AcDbVertex
100
AcDb2dVertex
 10
5.685359
 20
9.295371
 30
0.0
  0
VERTEX
  5
3AB
100
AcDbEntity
  8
0
  6
CONTINUOUS
 62
     7
100
AcDbVertex
100
AcDb2dVertex
 10
5.651456
 20
9.276924
 30
0.0
  0
VERTEX
  5
3AC
100
AcDbEntity
  8
0
  6
CONTINUOUS
 62
     7
100
AcDbVertex
100
AcDb2dVertex
 10
5.627403
 20
9.240206
 30
0.0
  0
SEQEND
  5
3AD
100
AcDbEntity
  8
0
  6
CONTINUOUS
 62
     7
  0
SOLID
  5
3AE
100
AcDbEntity
  8
0
 62
     7
100
AcDbTrace
 10
6.344983
 20
9.328845
 30
0.0
 11
6.374711
 21
9.249522
 31
0.0
 12
6.427318
 22
9.164856
 32
0.0
 13
6.427318
 23
9.164856
 33
0.0
  0
SOLID
  5
3AF
100
AcDbEntity
  8
0
 62
     7
100
AcDbTrace
 10
6.344983
 20
9.328845
 30
0.0
 11
6.427318
 21
9.164856
 31
0.0
 12
6.497058
 22
9.126263
 32
0.0
 13
6.497058
 23
9.126263
 33
0.0
  0
SOLID
  5
3B0
100
AcDbEntity
  8
0
 62
     7
100
AcDbTrace
 10
6.344983
 20
9.328845
 30
0.0
 11
6.497058
 21
9.126263
 31
0.0
 12
6.571826
 22
9.116995
 32
0.0
 13
6.571826
 23
9.116995
 33
0.0
  0
SOLID
  5
3B1
100
AcDbEntity
  8
0
 62
     7
100
AcDbTrace
 10
6.344983
 20
9.328845
 30
0.0
 11
6.571826
 21
9.116995
 31
0.0
 12
6.613852
 22
9.133208
 32
0.0
 13
6.613852
 23
9.133208
 33
0.0
  0
SOLID
  5
3B2
100
AcDbEntity
  8
0
 62
     7
100
AcDbTrace
 10
6.344983
 20
9.328845
 30
0.0
 11
6.613852
 21
9.133208
 31
0.0
 12
6.644229
 22
9.156078
 32
0.0
 13
6.644229
 23
9.156078
 33
0.0
  0
SOLID
  5
3B3
100
AcDbEntity
  8
0
 62
     7
100
AcDbTrace
 10
6.344983
 20
9.328845
 30
0.0
 11
6.644229
 21
9.156078
 31
0.0
 12
6.67056
 22
9.212294
 32
0.0
 13
6.67056
 23
9.212294
 33
0.0
  0
SOLID
  5
3B4
100
AcDbEntity
  8
0
 62
     7
100
AcDbTrace
 10
6.344983
 20
9.328845
 30
0.0
 11
6.67056
 21
9.212294
 31
0.0
 12
6.676289
 22
9.293351
 32
0.0
 13
6.676289
 23
9.293351
 33
0.0
  0
SOLID
  5
3B5
100
AcDbEntity
  8
0
 62
     7
100
AcDbTrace
 10
6.344983
 20
9.328845
 30
0.0
 11
6.676289
 21
9.293351
 31
0.0
 12
6.666216
 22
9.367173
 32
0.0
 13
6.666216
 23
9.367173
 33
0.0
  0
SOLID
  5
3B6
100
AcDbEntity
  8
0
 62
     7
100
AcDbTrace
 10
6.344983
 20
9.328845
 30
0.0
 11
6.666216
 21
9.367173
 31
0.0
 12
6.637118
 22
9.433603
 32
0.0
 13
6.637118
 23
9.433603
 33
0.0
  0
SOLID
  5
3B7
100
AcDbEntity
  8
0
 62
     7
100
AcDbTrace
 10
6.344983
 20
9.328845
 30
0.0
 11
6.637118
 21
9.433603
 31
0.0
 12
6.582549
 22
9.492324
 32
0.0
 13
6.582549
 23
9.492324
 33
0.0
  0
SOLID
  5
3B8
100
AcDbEntity
  8
0
 62
     7
100
AcDbTrace
 10
6.344983
 20
9.328845
 30
0.0
 11
6.582549
 21
9.492324
 31
0.0
 12
6.535688
 22
9.525574
 32
0.0
 13
6.535688
 23
9.525574
 33
0.0
  0
SOLID
  5
3B9
100
AcDbEntity
  8
0
 62
     7
100
AcDbTrace
 10
6.344983
 20
9.328845
 30
0.0
 11
6.535688
 21
9.525574
 31
0.0
 12
6.470117
 22
9.544985
 32
0.0
 13
6.470117
 23
9.544985
 33
0.0
  0
SOLID
  5
3BA
100
AcDbEntity
  8
0
 62
     7
100
AcDbTrace
 10
6.344983
 20
9.328845
 30
0.0
 11
6.470117
 21
9.544985
 31
0.0
 12
6.421158
 22
9.539993
 32
0.0
 13
6.421158
 23
9.539993
 33
0.0
  0
SOLID
  5
3BB
100
AcDbEntity
  8
0
 62
     7
100
AcDbTrace
 10
6.344983
 20
9.328845
 30
0.0
 11
6.421158
 21
9.539993
 31
0.0
 12
6.387255
 22
9.521546
 32
0.0
 13
6.387255
 23
9.521546
 33
0.0
  0
SOLID
  5
3BC
100
AcDbEntity
  8
0
 62
     7
100
AcDbTrace
 10
6.344983
 20
9.328845
 30
0.0
 11
6.387255
 21
9.521546
 31
0.0
 12
6.363203
 22
9.484827
 32
0.0
 13
6.363203
 23
9.484827
 33
0.0
  0
SOLID
  5
3BD
100
AcDbEntity
  8
0
 62
     7
100
AcDbTrace
 10
6.344983
 20
9.328845
 30
0.0
 11
6.363203
 21
9.484827
 31
0.0
 12
6.346385
 22
9.432308
 32
0.0
 13
6.346385
 23
9.432308
 33
0.0
  0
POLYLINE
  5
3BE
100
AcDbEntity
  8
0
  6
CONTINUOUS
 62
     7
100
AcDb2dPolyline
 66
     1
 10
0.0
 20
0.0
 30
0.0
 70
     1
  0
VERTEX
  5
3BF
100
AcDbEntity
  8
0
  6
CONTINUOUS
 62
     7
100
AcDbVertex
100
AcDb2dVertex
 10
6.346385
 20
9.432308
 30
0.0
  0
VERTEX
  5
3C0
100
AcDbEntity
  8
0
  6
CONTINUOUS
 62
     7
100
AcDbVertex
100
AcDb2dVertex
 10
6.344983
 20
9.328845
 30
0.0
  0
VERTEX
  5
3C1
100
AcDbEntity
  8
0
  6
CONTINUOUS
 62
     7
100
AcDbVertex
100
AcDb2dVertex
 10
6.374711
 20
9.249522
 30
0.0
  0
VERTEX
  5
3C2
100
AcDbEntity
  8
0
  6
CONTINUOUS
 62
     7
100
AcDbVertex
100
AcDb2dVertex
 10
6.427318
 20
9.164856
 30
0.0
  0
VERTEX
  5
3C3
100
AcDbEntity
  8
0
  6
CONTINUOUS
 62
     7
100
AcDbVertex
100
AcDb2dVertex
 10
6.497058
 20
9.126263
 30
0.0
  0
VERTEX
  5
3C4
100
AcDbEntity
  8
0
  6
CONTINUOUS
 62
     7
100
AcDbVertex
100
AcDb2dVertex
 10
6.571826
 20
9.116995
 30
0.0
  0
VERTEX
  5
3C5
100
AcDbEntity
  8
0
  6
CONTINUOUS
 62
     7
100
AcDbVertex
100
AcDb2dVertex
 10
6.613852
 20
9.133208
 30
0.0
  0
VERTEX
  5
3C6
100
AcDbEntity
  8
0
  6
CONTINUOUS
 62
     7
100
AcDbVertex
100
AcDb2dVertex
 10
6.644229
 20
9.156078
 30
0.0
  0
VERTEX
  5
3C7
100
AcDbEntity
  8
0
  6
CONTINUOUS
 62
     7
100
AcDbVertex
100
AcDb2dVertex
 10
6.67056
 20
9.212294
 30
0.0
  0
VERTEX
  5
3C8
100
AcDbEntity
  8
0
  6
CONTINUOUS
 62
     7
100
AcDbVertex
100
AcDb2dVertex
 10
6.676289
 20
9.293351
 30
0.0
  0
VERTEX
  5
3C9
100
AcDbEntity
  8
0
  6
CONTINUOUS
 62
     7
100
AcDbVertex
100
AcDb2dVertex
 10
6.666216
 20
9.367173
 30
0.0
  0
VERTEX
  5
3CA
100
AcDbEntity
  8
0
  6
CONTINUOUS
 62
     7
100
AcDbVertex
100
AcDb2dVertex
 10
6.637118
 20
9.433603
 30
0.0
  0
VERTEX
  5
3CB
100
AcDbEntity
  8
0
  6
CONTINUOUS
 62
     7
100
AcDbVertex
100
AcDb2dVertex
 10
6.582549
 20
9.492324
 30
0.0
  0
VERTEX
  5
3CC
100
AcDbEntity
  8
0
  6
CONTINUOUS
 62
     7
100
AcDbVertex
100
AcDb2dVertex
 10
6.535688
 20
9.525574
 30
0.0
  0
VERTEX
  5
3CD
100
AcDbEntity
  8
0
  6
CONTINUOUS
 62
     7
100
AcDbVertex
100
AcDb2dVertex
 10
6.470117
 20
9.544985
 30
0.0
  0
VERTEX
  5
3CE
100
AcDbEntity
  8
0
  6
CONTINUOUS
 62
     7
100
AcDbVertex
100
AcDb2dVertex
 10
6.421158
 20
9.539993
 30
0.0
  0
VERTEX
  5
3CF
100
AcDbEntity
  8
0
  6
CONTINUOUS
 62
     7
100
AcDbVertex
100
AcDb2dVertex
 10
6.387255
 20
9.521546
 30
0.0
  0
VERTEX
  5
3D0
100
AcDbEntity
  8
0
  6
CONTINUOUS
 62
     7
100
AcDbVertex
100
AcDb2dVertex
 10
6.363203
 20
9.484827
 30
0.0
  0
SEQEND
  5
3D1
100
AcDbEntity
  8
0
  6
CONTINUOUS
 62
     7
  0
SOLID
  5
3D2
100
AcDbEntity
  8
0
 62
     7
100
AcDbTrace
 10
6.252443
 20
8.578402
 30
0.0
 11
6.282171
 21
8.499079
 31
0.0
 12
6.334778
 22
8.414413
 32
0.0
 13
6.334778
 23
8.414413
 33
0.0
  0
SOLID
  5
3D3
100
AcDbEntity
  8
0
 62
     7
100
AcDbTrace
 10
6.252443
 20
8.578402
 30
0.0
 11
6.334778
 21
8.414413
 31
0.0
 12
6.404518
 22
8.37582
 32
0.0
 13
6.404518
 23
8.37582
 33
0.0
  0
SOLID
  5
3D4
100
AcDbEntity
  8
0
 62
     7
100
AcDbTrace
 10
6.252443
 20
8.578402
 30
0.0
 11
6.404518
 21
8.37582
 31
0.0
 12
6.479286
 22
8.366552
 32
0.0
 13
6.479286
 23
8.366552
 33
0.0
  0
SOLID
  5
3D5
100
AcDbEntity
  8
0
 62
     7
100
AcDbTrace
 10
6.252443
 20
8.578402
 30
0.0
 11
6.479286
 21
8.366552
 31
0.0
 12
6.521312
 22
8.382765
 32
0.0
 13
6.521312
 23
8.382765
 33
0.0
  0
SOLID
  5
3D6
100
AcDbEntity
  8
0
 62
     7
100
AcDbTrace
 10
6.252443
 20
8.578402
 30
0.0
 11
6.521312
 21
8.382765
 31
0.0
 12
6.551689
 22
8.405635
 32
0.0
 13
6.551689
 23
8.405635
 33
0.0
  0
SOLID
  5
3D7
100
AcDbEntity
  8
0
 62
     7
100
AcDbTrace
 10
6.252443
 20
8.578402
 30
0.0
 11
6.551689
 21
8.405635
 31
0.0
 12
6.578019
 22
8.461851
 32
0.0
 13
6.578019
 23
8.461851
 33
0.0
  0
SOLID
  5
3D8
100
AcDbEntity
  8
0
 62
     7
100
AcDbTrace
 10
6.252443
 20
8.578402
 30
0.0
 11
6.578019
 21
8.461851
 31
0.0
 12
6.583748
 22
8.542908
 32
0.0
 13
6.583748
 23
8.542908
 33
0.0
  0
SOLID
  5
3D9
100
AcDbEntity
  8
0
 62
     7
100
AcDbTrace
 10
6.252443
 20
8.578402
 30
0.0
 11
6.583748
 21
8.542908
 31
0.0
 12
6.573676
 22
8.61673
 32
0.0
 13
6.573676
 23
8.61673
 33
0.0
  0
SOLID
  5
3DA
100
AcDbEntity
  8
0
 62
     7
100
AcDbTrace
 10
6.252443
 20
8.578402
 30
0.0
 11
6.573676
 21
8.61673
 31
0.0
 12
6.544578
 22
8.68316
 32
0.0
 13
6.544578
 23
8.68316
 33
0.0
  0
SOLID
  5
3DB
100
AcDbEntity
  8
0
 62
     7
100
AcDbTrace
 10
6.252443
 20
8.578402
 30
0.0
 11
6.544578
 21
8.68316
 31
0.0
 12
6.490009
 22
8.741881
 32
0.0
 13
6.490009
 23
8.741881
 33
0.0
  0
SOLID
  5
3DC
100
AcDbEntity
  8
0
 62
     7
100
AcDbTrace
 10
6.252443
 20
8.578402
 30
0.0
 11
6.490009
 21
8.741881
 31
0.0
 12
6.443148
 22
8.775131
 32
0.0
 13
6.443148
 23
8.775131
 33
0.0
  0
SOLID
  5
3DD
100
AcDbEntity
  8
0
 62
     7
100
AcDbTrace
 10
6.252443
 20
8.578402
 30
0.0
 11
6.443148
 21
8.775131
 31
0.0
 12
6.377577
 22
8.794542
 32
0.0
 13
6.377577
 23
8.794542
 33
0.0
  0
SOLID
  5
3DE
100
AcDbEntity
  8
0
 62
     7
100
AcDbTrace
 10
6.252443
 20
8.578402
 30
0.0
 11
6.377577
 21
8.794542
 31
0.0
 12
6.328618
 22
8.78955
 32
0.0
 13
6.328618
 23
8.78955
 33
0.0
  0
SOLID
  5
3DF
100
AcDbEntity
  8
0
 62
     7
100
AcDbTrace
 10
6.252443
 20
8.578402
 30
0.0
 11
6.328618
 21
8.78955
 31
0.0
 12
6.294715
 22
8.771103
 32
0.0
 13
6.294715
 23
8.771103
 33
0.0
  0
SOLID
  5
3E0
100
AcDbEntity
  8
0
 62
     7
100
AcDbTrace
 10
6.252443
 20
8.578402
 30
0.0
 11
6.294715
 21
8.771103
 31
0.0
 12
6.270662
 22
8.734385
 32
0.0
 13
6.270662
 23
8.734385
 33
0.0
  0
SOLID
  5
3E1
100
AcDbEntity
  8
0
 62
     7
100
AcDbTrace
 10
6.252443
 20
8.578402
 30
0.0
 11
6.270662
 21
8.734385
 31
0.0
 12
6.253845
 22
8.681865
 32
0.0
 13
6.253845
 23
8.681865
 33
0.0
  0
POLYLINE
  5
3E2
100
AcDbEntity
  8
0
  6
CONTINUOUS
 62
     7
100
AcDb2dPolyline
 66
     1
 10
0.0
 20
0.0
 30
0.0
 70
     1
  0
VERTEX
  5
3E3
100
AcDbEntity
  8
0
  6
CONTINUOUS
 62
     7
100
AcDbVertex
100
AcDb2dVertex
 10
6.253845
 20
8.681865
 30
0.0
  0
VERTEX
  5
3E4
100
AcDbEntity
  8
0
  6
CONTINUOUS
 62
     7
100
AcDbVertex
100
AcDb2dVertex
 10
6.252443
 20
8.578402
 30
0.0
  0
VERTEX
  5
3E5
100
AcDbEntity
  8
0
  6
CONTINUOUS
 62
     7
100
AcDbVertex
100
AcDb2dVertex
 10
6.282171
 20
8.499079
 30
0.0
  0
VERTEX
  5
3E6
100
AcDbEntity
  8
0
  6
CONTINUOUS
 62
     7
100
AcDbVertex
100
AcDb2dVertex
 10
6.334778
 20
8.414413
 30
0.0
  0
VERTEX
  5
3E7
100
AcDbEntity
  8
0
  6
CONTINUOUS
 62
     7
100
AcDbVertex
100
AcDb2dVertex
 10
6.404518
 20
8.37582
 30
0.0
  0
VERTEX
  5
3E8
100
AcDbEntity
  8
0
  6
CONTINUOUS
 62
     7
100
AcDbVertex
100
AcDb2dVertex
 10
6.479286
 20
8.366552
 30
0.0
  0
VERTEX
  5
3E9
100
AcDbEntity
  8
0
  6
CONTINUOUS
 62
     7
100
AcDbVertex
100
AcDb2dVertex
 10
6.521312
 20
8.382765
 30
0.0
  0
VERTEX
  5
3EA
100
AcDbEntity
  8
0
  6
CONTINUOUS
 62
     7
100
AcDbVertex
100
AcDb2dVertex
 10
6.551689
 20
8.405635
 30
0.0
  0
VERTEX
  5
3EB
100
AcDbEntity
  8
0
  6
CONTINUOUS
 62
     7
100
AcDbVertex
100
AcDb2dVertex
 10
6.578019
 20
8.461851
 30
0.0
  0
VERTEX
  5
3EC
100
AcDbEntity
  8
0
  6
CONTINUOUS
 62
     7
100
AcDbVertex
100
AcDb2dVertex
 10
6.583748
 20
8.542908
 30
0.0
  0
VERTEX
  5
3ED
100
AcDbEntity
  8
0
  6
CONTINUOUS
 62
     7
100
AcDbVertex
100
AcDb2dVertex
 10
6.573676
 20
8.61673
 30
0.0
  0
VERTEX
  5
3EE
100
AcDbEntity
  8
0
  6
CONTINUOUS
 62
     7
100
AcDbVertex
100
AcDb2dVertex
 10
6.544578
 20
8.68316
 30
0.0
  0
VERTEX
  5
3EF
100
AcDbEntity
  8
0
  6
CONTINUOUS
 62
     7
100
AcDbVertex
100
AcDb2dVertex
 10
6.490009
 20
8.741881
 30
0.0
  0
VERTEX
  5
3F0
100
AcDbEntity
  8
0
  6
CONTINUOUS
 62
     7
100
AcDbVertex
100
AcDb2dVertex
 10
6.443148
 20
8.775131
 30
0.0
  0
VERTEX
  5
3F1
100
AcDbEntity
  8
0
  6
CONTINUOUS
 62
     7
100
AcDbVertex
100
AcDb2dVertex
 10
6.377577
 20
8.794542
 30
0.0
  0
VERTEX
  5
3F2
100
AcDbEntity
  8
0
  6
CONTINUOUS
 62
     7
100
AcDbVertex
100
AcDb2dVertex
 10
6.328618
 20
8.78955
 30
0.0
  0
VERTEX
  5
3F3
100
AcDbEntity
  8
0
  6
CONTINUOUS
 62
     7
100
AcDbVertex
100
AcDb2dVertex
 10
6.294715
 20
8.771103
 30
0.0
  0
VERTEX
  5
3F4
100
AcDbEntity
  8
0
  6
CONTINUOUS
 62
     7
100
AcDbVertex
100
AcDb2dVertex
 10
6.270662
 20
8.734385
 30
0.0
  0
SEQEND
  5
3F5
100
AcDbEntity
  8
0
  6
CONTINUOUS
 62
     7
  0
SOLID
  5
3F6
100
AcDbEntity
  8
0
 62
     7
100
AcDbTrace
 10
4.985702
 20
8.279656
 30
0.0
 11
5.083585
 21
8.260211
 31
0.0
 12
5.173532
 22
8.204835
 32
0.0
 13
5.173532
 23
8.204835
 33
0.0
  0
SOLID
  5
3F7
100
AcDbEntity
  8
0
 62
     7
100
AcDbTrace
 10
4.985702
 20
8.279656
 30
0.0
 11
5.173532
 21
8.204835
 31
0.0
 12
5.226884
 22
8.137976
 32
0.0
 13
5.226884
 23
8.137976
 33
0.0
  0
SOLID
  5
3F8
100
AcDbEntity
  8
0
 62
     7
100
AcDbTrace
 10
4.985702
 20
8.279656
 30
0.0
 11
5.226884
 21
8.137976
 31
0.0
 12
5.245094
 22
8.062936
 32
0.0
 13
5.245094
 23
8.062936
 33
0.0
  0
SOLID
  5
3F9
100
AcDbEntity
  8
0
 62
     7
100
AcDbTrace
 10
4.985702
 20
8.279656
 30
0.0
 11
5.245094
 21
8.062936
 31
0.0
 12
5.232288
 22
7.994457
 32
0.0
 13
5.232288
 23
7.994457
 33
0.0
  0
SOLID
  5
3FA
100
AcDbEntity
  8
0
 62
     7
100
AcDbTrace
 10
4.985702
 20
8.279656
 30
0.0
 11
5.232288
 21
7.994457
 31
0.0
 12
5.211616
 22
7.954673
 32
0.0
 13
5.211616
 23
7.954673
 33
0.0
  0
SOLID
  5
3FB
100
AcDbEntity
  8
0
 62
     7
100
AcDbTrace
 10
4.985702
 20
8.279656
 30
0.0
 11
5.211616
 21
7.954673
 31
0.0
 12
5.165356
 22
7.923526
 32
0.0
 13
5.165356
 23
7.923526
 33
0.0
  0
SOLID
  5
3FC
100
AcDbEntity
  8
0
 62
     7
100
AcDbTrace
 10
4.985702
 20
8.279656
 30
0.0
 11
5.165356
 21
7.923526
 31
0.0
 12
5.113583
 22
7.911106
 32
0.0
 13
5.113583
 23
7.911106
 33
0.0
  0
SOLID
  5
3FD
100
AcDbEntity
  8
0
 62
     7
100
AcDbTrace
 10
4.985702
 20
8.279656
 30
0.0
 11
5.113583
 21
7.911106
 31
0.0
 12
5.029145
 22
7.919901
 32
0.0
 13
5.029145
 23
7.919901
 33
0.0
  0
SOLID
  5
3FE
100
AcDbEntity
  8
0
 62
     7
100
AcDbTrace
 10
4.985702
 20
8.279656
 30
0.0
 11
5.029145
 21
7.919901
 31
0.0
 12
4.940144
 22
7.955936
 32
0.0
 13
4.940144
 23
7.955936
 33
0.0
  0
SOLID
  5
3FF
100
AcDbEntity
  8
0
 62
     7
100
AcDbTrace
 10
4.985702
 20
8.279656
 30
0.0
 11
4.940144
 21
7.955936
 31
0.0
 12
4.876377
 22
8.004515
 32
0.0
 13
4.876377
 23
8.004515
 33
0.0
  0
SOLID
  5
400
100
AcDbEntity
  8
0
 62
     7
100
AcDbTrace
 10
4.985702
 20
8.279656
 30
0.0
 11
4.876377
 21
8.004515
 31
0.0
 12
4.827545
 22
8.078057
 32
0.0
 13
4.827545
 23
8.078057
 33
0.0
  0
SOLID
  5
401
100
AcDbEntity
  8
0
 62
     7
100
AcDbTrace
 10
4.985702
 20
8.279656
 30
0.0
 11
4.827545
 21
8.078057
 31
0.0
 12
4.817946
 22
8.142209
 32
0.0
 13
4.817946
 23
8.142209
 33
0.0
  0
SOLID
  5
402
100
AcDbEntity
  8
0
 62
     7
100
AcDbTrace
 10
4.985702
 20
8.279656
 30
0.0
 11
4.817946
 21
8.142209
 31
0.0
 12
4.824621
 22
8.203926
 32
0.0
 13
4.824621
 23
8.203926
 33
0.0
  0
SOLID
  5
403
100
AcDbEntity
  8
0
 62
     7
100
AcDbTrace
 10
4.985702
 20
8.279656
 30
0.0
 11
4.824621
 21
8.203926
 31
0.0
 12
4.858028
 22
8.247563
 32
0.0
 13
4.858028
 23
8.247563
 33
0.0
  0
SOLID
  5
404
100
AcDbEntity
  8
0
 62
     7
100
AcDbTrace
 10
4.985702
 20
8.279656
 30
0.0
 11
4.858028
 21
8.247563
 31
0.0
 12
4.895763
 22
8.268795
 32
0.0
 13
4.895763
 23
8.268795
 33
0.0
  0
POLYLINE
  5
405
100
AcDbEntity
  8
0
  6
CONTINUOUS
 62
     7
100
AcDb2dPolyline
 66
     1
 10
0.0
 20
0.0
 30
0.0
 70
     1
  0
VERTEX
  5
406
100
AcDbEntity
  8
0
  6
CONTINUOUS
 62
     7
100
AcDbVertex
100
AcDb2dVertex
 10
4.895763
 20
8.268795
 30
0.0
  0
VERTEX
  5
407
100
AcDbEntity
  8
0
  6
CONTINUOUS
 62
     7
100
AcDbVertex
100
AcDb2dVertex
 10
4.985702
 20
8.279656
 30
0.0
  0
VERTEX
  5
408
100
AcDbEntity
  8
0
  6
CONTINUOUS
 62
     7
100
AcDbVertex
100
AcDb2dVertex
 10
5.083585
 20
8.260211
 30
0.0
  0
VERTEX
  5
409
100
AcDbEntity
  8
0
  6
CONTINUOUS
 62
     7
100
AcDbVertex
100
AcDb2dVertex
 10
5.173532
 20
8.204835
 30
0.0
  0
VERTEX
  5
40A
100
AcDbEntity
  8
0
  6
CONTINUOUS
 62
     7
100
AcDbVertex
100
AcDb2dVertex
 10
5.226884
 20
8.137976
 30
0.0
  0
VERTEX
  5
40B
100
AcDbEntity
  8
0
  6
CONTINUOUS
 62
     7
100
AcDbVertex
100
AcDb2dVertex
 10
5.245094
 20
8.062936
 30
0.0
  0
VERTEX
  5
40C
100
AcDbEntity
  8
0
  6
CONTINUOUS
 62
     7
100
AcDbVertex
100
AcDb2dVertex
 10
5.232288
 20
7.994457
 30
0.0
  0
VERTEX
  5
40D
100
AcDbEntity
  8
0
  6
CONTINUOUS
 62
     7
100
AcDbVertex
100
AcDb2dVertex
 10
5.211616
 20
7.954673
 30
0.0
  0
VERTEX
  5
40E
100
AcDbEntity
  8
0
  6
CONTINUOUS
 62
     7
100
AcDbVertex
100
AcDb2dVertex
 10
5.165356
 20
7.923526
 30
0.0
  0
VERTEX
  5
40F
100
AcDbEntity
  8
0
  6
CONTINUOUS
 62
     7
100
AcDbVertex
100
AcDb2dVertex
 10
5.113583
 20
7.911106
 30
0.0
  0
VERTEX
  5
410
100
AcDbEntity
  8
0
  6
CONTINUOUS
 62
     7
100
AcDbVertex
100
AcDb2dVertex
 10
5.029145
 20
7.919901
 30
0.0
  0
VERTEX
  5
411
100
AcDbEntity
  8
0
  6
CONTINUOUS
 62
     7
100
AcDbVertex
100
AcDb2dVertex
 10
4.940144
 20
7.955936
 30
0.0
  0
VERTEX
  5
412
100
AcDbEntity
  8
0
  6
CONTINUOUS
 62
     7
100
AcDbVertex
100
AcDb2dVertex
 10
4.876377
 20
8.004515
 30
0.0
  0
VERTEX
  5
413
100
AcDbEntity
  8
0
  6
CONTINUOUS
 62
     7
100
AcDbVertex
100
AcDb2dVertex
 10
4.827545
 20
8.078057
 30
0.0
  0
VERTEX
  5
414
100
AcDbEntity
  8
0
  6
CONTINUOUS
 62
     7
100
AcDbVertex
100
AcDb2dVertex
 10
4.817946
 20
8.142209
 30
0.0
  0
VERTEX
  5
415
100
AcDbEntity
  8
0
  6
CONTINUOUS
 62
     7
100
AcDbVertex
100
AcDb2dVertex
 10
4.824621
 20
8.203926
 30
0.0
  0
VERTEX
  5
416
100
AcDbEntity
  8
0
  6
CONTINUOUS
 62
     7
100
AcDbVertex
100
AcDb2dVertex
 10
4.858028
 20
8.247563
 30
0.0
  0
SEQEND
  5
417
100
AcDbEntity
  8
0
  6
CONTINUOUS
 62
     7
  0
SOLID
  5
418
100
AcDbEntity
  8
0
 62
     7
100
AcDbTrace
 10
2.094189
 20
7.89298
 30
0.0
 11
2.088933
 21
7.802253
 31
0.0
 12
2.096994
 22
7.7167
 32
0.0
 13
2.096994
 23
7.7167
 33
0.0
  0
SOLID
  5
419
100
AcDbEntity
  8
0
 62
     7
100
AcDbTrace
 10
2.094189
 20
7.89298
 30
0.0
 11
2.096994
 21
7.7167
 31
0.0
 12
2.14347
 22
7.625272
 32
0.0
 13
2.14347
 23
7.625272
 33
0.0
  0
SOLID
  5
41A
100
AcDbEntity
  8
0
 62
     7
100
AcDbTrace
 10
2.094189
 20
7.89298
 30
0.0
 11
2.14347
 21
7.625272
 31
0.0
 12
2.204328
 22
7.570089
 32
0.0
 13
2.204328
 23
7.570089
 33
0.0
  0
SOLID
  5
41B
100
AcDbEntity
  8
0
 62
     7
100
AcDbTrace
 10
2.094189
 20
7.89298
 30
0.0
 11
2.204328
 21
7.570089
 31
0.0
 12
2.263294
 22
7.553587
 32
0.0
 13
2.263294
 23
7.553587
 33
0.0
  0
SOLID
  5
41C
100
AcDbEntity
  8
0
 62
     7
100
AcDbTrace
 10
2.094189
 20
7.89298
 30
0.0
 11
2.263294
 21
7.553587
 31
0.0
 12
2.339709
 22
7.576711
 32
0.0
 13
2.339709
 23
7.576711
 33
0.0
  0
SOLID
  5
41D
100
AcDbEntity
  8
0
 62
     7
100
AcDbTrace
 10
2.094189
 20
7.89298
 30
0.0
 11
2.339709
 21
7.576711
 31
0.0
 12
2.381368
 22
7.649832
 32
0.0
 13
2.381368
 23
7.649832
 33
0.0
  0
SOLID
  5
41E
100
AcDbEntity
  8
0
 62
     7
100
AcDbTrace
 10
2.094189
 20
7.89298
 30
0.0
 11
2.381368
 21
7.649832
 31
0.0
 12
2.405176
 22
7.757622
 32
0.0
 13
2.405176
 23
7.757622
 33
0.0
  0
SOLID
  5
41F
100
AcDbEntity
  8
0
 62
     7
100
AcDbTrace
 10
2.094189
 20
7.89298
 30
0.0
 11
2.405176
 21
7.757622
 31
0.0
 12
2.37741
 22
7.862889
 32
0.0
 13
2.37741
 23
7.862889
 33
0.0
  0
SOLID
  5
420
100
AcDbEntity
  8
0
 62
     7
100
AcDbTrace
 10
2.094189
 20
7.89298
 30
0.0
 11
2.37741
 21
7.862889
 31
0.0
 12
2.33125
 22
7.947871
 32
0.0
 13
2.33125
 23
7.947871
 33
0.0
  0
SOLID
  5
421
100
AcDbEntity
  8
0
 62
     7
100
AcDbTrace
 10
2.094189
 20
7.89298
 30
0.0
 11
2.33125
 21
7.947871
 31
0.0
 12
2.267956
 22
7.986779
 32
0.0
 13
2.267956
 23
7.986779
 33
0.0
  0
SOLID
  5
422
100
AcDbEntity
  8
0
 62
     7
100
AcDbTrace
 10
2.094189
 20
7.89298
 30
0.0
 11
2.267956
 21
7.986779
 31
0.0
 12
2.19583
 22
7.994883
 32
0.0
 13
2.19583
 23
7.994883
 33
0.0
  0
SOLID
  5
423
100
AcDbEntity
  8
0
 62
     7
100
AcDbTrace
 10
2.094189
 20
7.89298
 30
0.0
 11
2.19583
 21
7.994883
 31
0.0
 12
2.133255
 22
7.95305
 32
0.0
 13
2.133255
 23
7.95305
 33
0.0
  0
POLYLINE
  5
424
100
AcDbEntity
  8
0
  6
CONTINUOUS
 62
     7
100
AcDb2dPolyline
 66
     1
 10
0.0
 20
0.0
 30
0.0
 70
     1
  0
VERTEX
  5
425
100
AcDbEntity
  8
0
  6
CONTINUOUS
 62
     7
100
AcDbVertex
100
AcDb2dVertex
 10
2.133255
 20
7.95305
 30
0.0
  0
VERTEX
  5
426
100
AcDbEntity
  8
0
  6
CONTINUOUS
 62
     7
100
AcDbVertex
100
AcDb2dVertex
 10
2.094189
 20
7.89298
 30
0.0
  0
VERTEX
  5
427
100
AcDbEntity
  8
0
  6
CONTINUOUS
 62
     7
100
AcDbVertex
100
AcDb2dVertex
 10
2.088933
 20
7.802253
 30
0.0
  0
VERTEX
  5
428
100
AcDbEntity
  8
0
  6
CONTINUOUS
 62
     7
100
AcDbVertex
100
AcDb2dVertex
 10
2.096994
 20
7.7167
 30
0.0
  0
VERTEX
  5
429
100
AcDbEntity
  8
0
  6
CONTINUOUS
 62
     7
100
AcDbVertex
100
AcDb2dVertex
 10
2.14347
 20
7.625272
 30
0.0
  0
VERTEX
  5
42A
100
AcDbEntity
  8
0
  6
CONTINUOUS
 62
     7
100
AcDbVertex
100
AcDb2dVertex
 10
2.204328
 20
7.570089
 30
0.0
  0
VERTEX
  5
42B
100
AcDbEntity
  8
0
  6
CONTINUOUS
 62
     7
100
AcDbVertex
100
AcDb2dVertex
 10
2.263294
 20
7.553587
 30
0.0
  0
VERTEX
  5
42C
100
AcDbEntity
  8
0
  6
CONTINUOUS
 62
     7
100
AcDbVertex
100
AcDb2dVertex
 10
2.339709
 20
7.576711
 30
0.0
  0
VERTEX
  5
42D
100
AcDbEntity
  8
0
  6
CONTINUOUS
 62
     7
100
AcDbVertex
100
AcDb2dVertex
 10
2.381368
 20
7.649832
 30
0.0
  0
VERTEX
  5
42E
100
AcDbEntity
  8
0
  6
CONTINUOUS
 62
     7
100
AcDbVertex
100
AcDb2dVertex
 10
2.405176
 20
7.757622
 30
0.0
  0
VERTEX
  5
42F
100
AcDbEntity
  8
0
  6
CONTINUOUS
 62
     7
100
AcDbVertex
100
AcDb2dVertex
 10
2.37741
 20
7.862889
 30
0.0
  0
VERTEX
  5
430
100
AcDbEntity
  8
0
  6
CONTINUOUS
 62
     7
100
AcDbVertex
100
AcDb2dVertex
 10
2.33125
 20
7.947871
 30
0.0
  0
VERTEX
  5
431
100
AcDbEntity
  8
0
  6
CONTINUOUS
 62
     7
100
AcDbVertex
100
AcDb2dVertex
 10
2.267956
 20
7.986779
 30
0.0
  0
VERTEX
  5
432
100
AcDbEntity
  8
0
  6
CONTINUOUS
 62
     7
100
AcDbVertex
100
AcDb2dVertex
 10
2.19583
 20
7.994883
 30
0.0
  0
SEQEND
  5
433
100
AcDbEntity
  8
0
  6
CONTINUOUS
 62
     7
  0
SOLID
  5
434
100
AcDbEntity
  8
0
 62
     7
100
AcDbTrace
 10
2.558456
 20
9.286843
 30
0.0
 11
2.669627
 21
9.259969
 31
0.0
 12
2.772144
 22
9.277907
 32
0.0
 13
2.772144
 23
9.277907
 33
0.0
  0
SOLID
  5
435
100
AcDbEntity
  8
0
 62
     7
100
AcDbTrace
 10
2.558456
 20
9.286843
 30
0.0
 11
2.772144
 21
9.277907
 31
0.0
 12
2.853745
 22
9.327133
 32
0.0
 13
2.853745
 23
9.327133
 33
0.0
  0
SOLID
  5
436
100
AcDbEntity
  8
0
 62
     7
100
AcDbTrace
 10
2.558456
 20
9.286843
 30
0.0
 11
2.853745
 21
9.327133
 31
0.0
 12
2.920087
 22
9.424079
 32
0.0
 13
2.920087
 23
9.424079
 33
0.0
  0
SOLID
  5
437
100
AcDbEntity
  8
0
 62
     7
100
AcDbTrace
 10
2.558456
 20
9.286843
 30
0.0
 11
2.920087
 21
9.424079
 31
0.0
 12
2.903883
 22
9.491139
 32
0.0
 13
2.903883
 23
9.491139
 33
0.0
  0
SOLID
  5
438
100
AcDbEntity
  8
0
 62
     7
100
AcDbTrace
 10
2.558456
 20
9.286843
 30
0.0
 11
2.903883
 21
9.491139
 31
0.0
 12
2.855287
 22
9.559846
 32
0.0
 13
2.855287
 23
9.559846
 33
0.0
  0
SOLID
  5
439
100
AcDbEntity
  8
0
 62
     7
100
AcDbTrace
 10
2.558456
 20
9.286843
 30
0.0
 11
2.855287
 21
9.559846
 31
0.0
 12
2.77635
 22
9.588296
 32
0.0
 13
2.77635
 23
9.588296
 33
0.0
  0
SOLID
  5
43A
100
AcDbEntity
  8
0
 62
     7
100
AcDbTrace
 10
2.558456
 20
9.286843
 30
0.0
 11
2.77635
 21
9.588296
 31
0.0
 12
2.660151
 22
9.585844
 32
0.0
 13
2.660151
 23
9.585844
 33
0.0
  0
SOLID
  5
43B
100
AcDbEntity
  8
0
 62
     7
100
AcDbTrace
 10
2.558456
 20
9.286843
 30
0.0
 11
2.660151
 21
9.585844
 31
0.0
 12
2.558896
 22
9.542119
 32
0.0
 13
2.558896
 23
9.542119
 33
0.0
  0
SOLID
  5
43C
100
AcDbEntity
  8
0
 62
     7
100
AcDbTrace
 10
2.558456
 20
9.286843
 30
0.0
 11
2.558896
 21
9.542119
 31
0.0
 12
2.497897
 22
9.468052
 32
0.0
 13
2.497897
 23
9.468052
 33
0.0
  0
SOLID
  5
43D
100
AcDbEntity
  8
0
 62
     7
100
AcDbTrace
 10
2.558456
 20
9.286843
 30
0.0
 11
2.497897
 21
9.468052
 31
0.0
 12
2.481552
 22
9.405862
 32
0.0
 13
2.481552
 23
9.405862
 33
0.0
  0
SOLID
  5
43E
100
AcDbEntity
  8
0
 62
     7
100
AcDbTrace
 10
2.558456
 20
9.286843
 30
0.0
 11
2.481552
 21
9.405862
 31
0.0
 12
2.494532
 22
9.338645
 32
0.0
 13
2.494532
 23
9.338645
 33
0.0
  0
POLYLINE
  5
43F
100
AcDbEntity
  8
0
  6
CONTINUOUS
 62
     7
100
AcDb2dPolyline
 66
     1
 10
0.0
 20
0.0
 30
0.0
 70
     1
  0
VERTEX
  5
440
100
AcDbEntity
  8
0
  6
CONTINUOUS
 62
     7
100
AcDbVertex
100
AcDb2dVertex
 10
2.494532
 20
9.338645
 30
0.0
  0
VERTEX
  5
441
100
AcDbEntity
  8
0
  6
CONTINUOUS
 62
     7
100
AcDbVertex
100
AcDb2dVertex
 10
2.558456
 20
9.286843
 30
0.0
  0
VERTEX
  5
442
100
AcDbEntity
  8
0
  6
CONTINUOUS
 62
     7
100
AcDbVertex
100
AcDb2dVertex
 10
2.669627
 20
9.259969
 30
0.0
  0
VERTEX
  5
443
100
AcDbEntity
  8
0
  6
CONTINUOUS
 62
     7
100
AcDbVertex
100
AcDb2dVertex
 10
2.772144
 20
9.277907
 30
0.0
  0
VERTEX
  5
444
100
AcDbEntity
  8
0
  6
CONTINUOUS
 62
     7
100
AcDbVertex
100
AcDb2dVertex
 10
2.853745
 20
9.327133
 30
0.0
  0
VERTEX
  5
445
100
AcDbEntity
  8
0
  6
CONTINUOUS
 62
     7
100
AcDbVertex
100
AcDb2dVertex
 10
2.920087
 20
9.424079
 30
0.0
  0
VERTEX
  5
446
100
AcDbEntity
  8
0
  6
CONTINUOUS
 62
     7
100
AcDbVertex
100
AcDb2dVertex
 10
2.903883
 20
9.491139
 30
0.0
  0
VERTEX
  5
447
100
AcDbEntity
  8
0
  6
CONTINUOUS
 62
     7
100
AcDbVertex
100
AcDb2dVertex
 10
2.855287
 20
9.559846
 30
0.0
  0
VERTEX
  5
448
100
AcDbEntity
  8
0
  6
CONTINUOUS
 62
     7
100
AcDbVertex
100
AcDb2dVertex
 10
2.77635
 20
9.588296
 30
0.0
  0
VERTEX
  5
449
100
AcDbEntity
  8
0
  6
CONTINUOUS
 62
     7
100
AcDbVertex
100
AcDb2dVertex
 10
2.660151
 20
9.585844
 30
0.0
  0
VERTEX
  5
44A
100
AcDbEntity
  8
0
  6
CONTINUOUS
 62
     7
100
AcDbVertex
100
AcDb2dVertex
 10
2.558896
 20
9.542119
 30
0.0
  0
VERTEX
  5
44B
100
AcDbEntity
  8
0
  6
CONTINUOUS
 62
     7
100
AcDbVertex
100
AcDb2dVertex
 10
2.497897
 20
9.468052
 30
0.0
  0
VERTEX
  5
44C
100
AcDbEntity
  8
0
  6
CONTINUOUS
 62
     7
100
AcDbVertex
100
AcDb2dVertex
 10
2.481552
 20
9.405862
 30
0.0
  0
SEQEND
  5
44D
100
AcDbEntity
  8
0
  6
CONTINUOUS
 62
     7
  0
SOLID
  5
44E
100
AcDbEntity
  8
0
 62
     7
100
AcDbTrace
 10
3.435126
 20
8.166986
 30
0.0
 11
3.439067
 21
8.086402
 31
0.0
 12
3.472019
 22
8.007237
 32
0.0
 13
3.472019
 23
8.007237
 33
0.0
  0
SOLID
  5
44F
100
AcDbEntity
  8
0
 62
     7
100
AcDbTrace
 10
3.435126
 20
8.166986
 30
0.0
 11
3.472019
 21
8.007237
 31
0.0
 12
3.505804
 22
7.973894
 32
0.0
 13
3.505804
 23
7.973894
 33
0.0
  0
SOLID
  5
450
100
AcDbEntity
  8
0
 62
     7
100
AcDbTrace
 10
3.435126
 20
8.166986
 30
0.0
 11
3.505804
 21
7.973894
 31
0.0
 12
3.577531
 22
7.963931
 32
0.0
 13
3.577531
 23
7.963931
 33
0.0
  0
SOLID
  5
451
100
AcDbEntity
  8
0
 62
     7
100
AcDbTrace
 10
3.435126
 20
8.166986
 30
0.0
 11
3.577531
 21
7.963931
 31
0.0
 12
3.653788
 22
7.990278
 32
0.0
 13
3.653788
 23
7.990278
 33
0.0
  0
SOLID
  5
452
100
AcDbEntity
  8
0
 62
     7
100
AcDbTrace
 10
3.435126
 20
8.166986
 30
0.0
 11
3.653788
 21
7.990278
 31
0.0
 12
3.718326
 22
8.058056
 32
0.0
 13
3.718326
 23
8.058056
 33
0.0
  0
SOLID
  5
453
100
AcDbEntity
  8
0
 62
     7
100
AcDbTrace
 10
3.435126
 20
8.166986
 30
0.0
 11
3.718326
 21
8.058056
 31
0.0
 12
3.75063
 22
8.124258
 32
0.0
 13
3.75063
 23
8.124258
 33
0.0
  0
SOLID
  5
454
100
AcDbEntity
  8
0
 62
     7
100
AcDbTrace
 10
3.435126
 20
8.166986
 30
0.0
 11
3.75063
 21
8.124258
 31
0.0
 12
3.771845
 22
8.218996
 32
0.0
 13
3.771845
 23
8.218996
 33
0.0
  0
SOLID
  5
455
100
AcDbEntity
  8
0
 62
     7
100
AcDbTrace
 10
3.435126
 20
8.166986
 30
0.0
 11
3.771845
 21
8.218996
 31
0.0
 12
3.75438
 22
8.311843
 32
0.0
 13
3.75438
 23
8.311843
 33
0.0
  0
SOLID
  5
456
100
AcDbEntity
  8
0
 62
     7
100
AcDbTrace
 10
3.435126
 20
8.166986
 30
0.0
 11
3.75438
 21
8.311843
 31
0.0
 12
3.705785
 22
8.38055
 32
0.0
 13
3.705785
 23
8.38055
 33
0.0
  0
SOLID
  5
457
100
AcDbEntity
  8
0
 62
     7
100
AcDbTrace
 10
3.435126
 20
8.166986
 30
0.0
 11
3.705785
 21
8.38055
 31
0.0
 12
3.646661
 22
8.400276
 32
0.0
 13
3.646661
 23
8.400276
 33
0.0
  0
SOLID
  5
458
100
AcDbEntity
  8
0
 62
     7
100
AcDbTrace
 10
3.435126
 20
8.166986
 30
0.0
 11
3.646661
 21
8.400276
 31
0.0
 12
3.590223
 22
8.392611
 32
0.0
 13
3.590223
 23
8.392611
 33
0.0
  0
SOLID
  5
459
100
AcDbEntity
  8
0
 62
     7
100
AcDbTrace
 10
3.435126
 20
8.166986
 30
0.0
 11
3.590223
 21
8.392611
 31
0.0
 12
3.5388
 22
8.359459
 32
0.0
 13
3.5388
 23
8.359459
 33
0.0
  0
SOLID
  5
45A
100
AcDbEntity
  8
0
 62
     7
100
AcDbTrace
 10
3.435126
 20
8.166986
 30
0.0
 11
3.5388
 21
8.359459
 31
0.0
 12
3.468446
 22
8.278472
 32
0.0
 13
3.468446
 23
8.278472
 33
0.0
  0
POLYLINE
  5
45B
100
AcDbEntity
  8
0
  6
CONTINUOUS
 62
     7
100
AcDb2dPolyline
 66
     1
 10
0.0
 20
0.0
 30
0.0
 70
     1
  0
VERTEX
  5
45C
100
AcDbEntity
  8
0
  6
CONTINUOUS
 62
     7
100
AcDbVertex
100
AcDb2dVertex
 10
3.468446
 20
8.278472
 30
0.0
  0
VERTEX
  5
45D
100
AcDbEntity
  8
0
  6
CONTINUOUS
 62
     7
100
AcDbVertex
100
AcDb2dVertex
 10
3.435126
 20
8.166986
 30
0.0
  0
VERTEX
  5
45E
100
AcDbEntity
  8
0
  6
CONTINUOUS
 62
     7
100
AcDbVertex
100
AcDb2dVertex
 10
3.439067
 20
8.086402
 30
0.0
  0
VERTEX
  5
45F
100
AcDbEntity
  8
0
  6
CONTINUOUS
 62
     7
100
AcDbVertex
100
AcDb2dVertex
 10
3.472019
 20
8.007237
 30
0.0
  0
VERTEX
  5
460
100
AcDbEntity
  8
0
  6
CONTINUOUS
 62
     7
100
AcDbVertex
100
AcDb2dVertex
 10
3.505804
 20
7.973894
 30
0.0
  0
VERTEX
  5
461
100
AcDbEntity
  8
0
  6
CONTINUOUS
 62
     7
100
AcDbVertex
100
AcDb2dVertex
 10
3.577531
 20
7.963931
 30
0.0
  0
VERTEX
  5
462
100
AcDbEntity
  8
0
  6
CONTINUOUS
 62
     7
100
AcDbVertex
100
AcDb2dVertex
 10
3.653788
 20
7.990278
 30
0.0
  0
VERTEX
  5
463
100
AcDbEntity
  8
0
  6
CONTINUOUS
 62
     7
100
AcDbVertex
100
AcDb2dVertex
 10
3.718326
 20
8.058056
 30
0.0
  0
VERTEX
  5
464
100
AcDbEntity
  8
0
  6
CONTINUOUS
 62
     7
100
AcDbVertex
100
AcDb2dVertex
 10
3.75063
 20
8.124258
 30
0.0
  0
VERTEX
  5
465
100
AcDbEntity
  8
0
  6
CONTINUOUS
 62
     7
100
AcDbVertex
100
AcDb2dVertex
 10
3.771845
 20
8.218996
 30
0.0
  0
VERTEX
  5
466
100
AcDbEntity
  8
0
  6
CONTINUOUS
 62
     7
100
AcDbVertex
100
AcDb2dVertex
 10
3.75438
 20
8.311843
 30
0.0
  0
VERTEX
  5
467
100
AcDbEntity
  8
0
  6
CONTINUOUS
 62
     7
100
AcDbVertex
100
AcDb2dVertex
 10
3.705785
 20
8.38055
 30
0.0
  0
VERTEX
  5
468
100
AcDbEntity
  8
0
  6
CONTINUOUS
 62
     7
100
AcDbVertex
100
AcDb2dVertex
 10
3.646661
 20
8.400276
 30
0.0
  0
VERTEX
  5
469
100
AcDbEntity
  8
0
  6
CONTINUOUS
 62
     7
100
AcDbVertex
100
AcDb2dVertex
 10
3.590223
 20
8.392611
 30
0.0
  0
VERTEX
  5
46A
100
AcDbEntity
  8
0
  6
CONTINUOUS
 62
     7
100
AcDbVertex
100
AcDb2dVertex
 10
3.5388
 20
8.359459
 30
0.0
  0
SEQEND
  5
46B
100
AcDbEntity
  8
0
  6
CONTINUOUS
 62
     7
  0
SOLID
  5
46C
100
AcDbEntity
  8
0
 62
     7
100
AcDbTrace
 10
3.715688
 20
8.772641
 30
0.0
 11
3.719629
 21
8.692057
 31
0.0
 12
3.752581
 22
8.612892
 32
0.0
 13
3.752581
 23
8.612892
 33
0.0
  0
SOLID
  5
46D
100
AcDbEntity
  8
0
 62
     7
100
AcDbTrace
 10
3.715688
 20
8.772641
 30
0.0
 11
3.752581
 21
8.612892
 31
0.0
 12
3.786366
 22
8.579549
 32
0.0
 13
3.786366
 23
8.579549
 33
0.0
  0
SOLID
  5
46E
100
AcDbEntity
  8
0
 62
     7
100
AcDbTrace
 10
3.715688
 20
8.772641
 30
0.0
 11
3.786366
 21
8.579549
 31
0.0
 12
3.858093
 22
8.569586
 32
0.0
 13
3.858093
 23
8.569586
 33
0.0
  0
SOLID
  5
46F
100
AcDbEntity
  8
0
 62
     7
100
AcDbTrace
 10
3.715688
 20
8.772641
 30
0.0
 11
3.858093
 21
8.569586
 31
0.0
 12
3.93435
 22
8.595933
 32
0.0
 13
3.93435
 23
8.595933
 33
0.0
  0
SOLID
  5
470
100
AcDbEntity
  8
0
 62
     7
100
AcDbTrace
 10
3.715688
 20
8.772641
 30
0.0
 11
3.93435
 21
8.595933
 31
0.0
 12
3.998888
 22
8.663711
 32
0.0
 13
3.998888
 23
8.663711
 33
0.0
  0
SOLID
  5
471
100
AcDbEntity
  8
0
 62
     7
100
AcDbTrace
 10
3.715688
 20
8.772641
 30
0.0
 11
3.998888
 21
8.663711
 31
0.0
 12
4.031192
 22
8.729912
 32
0.0
 13
4.031192
 23
8.729912
 33
0.0
  0
SOLID
  5
472
100
AcDbEntity
  8
0
 62
     7
100
AcDbTrace
 10
3.715688
 20
8.772641
 30
0.0
 11
4.031192
 21
8.729912
 31
0.0
 12
4.052407
 22
8.824651
 32
0.0
 13
4.052407
 23
8.824651
 33
0.0
  0
SOLID
  5
473
100
AcDbEntity
  8
0
 62
     7
100
AcDbTrace
 10
3.715688
 20
8.772641
 30
0.0
 11
4.052407
 21
8.824651
 31
0.0
 12
4.034942
 22
8.917498
 32
0.0
 13
4.034942
 23
8.917498
 33
0.0
  0
SOLID
  5
474
100
AcDbEntity
  8
0
 62
     7
100
AcDbTrace
 10
3.715688
 20
8.772641
 30
0.0
 11
4.034942
 21
8.917498
 31
0.0
 12
3.986346
 22
8.986205
 32
0.0
 13
3.986346
 23
8.986205
 33
0.0
  0
SOLID
  5
475
100
AcDbEntity
  8
0
 62
     7
100
AcDbTrace
 10
3.715688
 20
8.772641
 30
0.0
 11
3.986346
 21
8.986205
 31
0.0
 12
3.927222
 22
9.005931
 32
0.0
 13
3.927222
 23
9.005931
 33
0.0
  0
SOLID
  5
476
100
AcDbEntity
  8
0
 62
     7
100
AcDbTrace
 10
3.715688
 20
8.772641
 30
0.0
 11
3.927222
 21
9.005931
 31
0.0
 12
3.870784
 22
8.998265
 32
0.0
 13
3.870784
 23
8.998265
 33
0.0
  0
SOLID
  5
477
100
AcDbEntity
  8
0
 62
     7
100
AcDbTrace
 10
3.715688
 20
8.772641
 30
0.0
 11
3.870784
 21
8.998265
 31
0.0
 12
3.819362
 22
8.965114
 32
0.0
 13
3.819362
 23
8.965114
 33
0.0
  0
SOLID
  5
478
100
AcDbEntity
  8
0
 62
     7
100
AcDbTrace
 10
3.715688
 20
8.772641
 30
0.0
 11
3.819362
 21
8.965114
 31
0.0
 12
3.749008
 22
8.884127
 32
0.0
 13
3.749008
 23
8.884127
 33
0.0
  0
POLYLINE
  5
479
100
AcDbEntity
  8
0
  6
CONTINUOUS
 62
     7
100
AcDb2dPolyline
 66
     1
 10
0.0
 20
0.0
 30
0.0
 70
     1
  0
VERTEX
  5
47A
100
AcDbEntity
  8
0
  6
CONTINUOUS
 62
     7
100
AcDbVertex
100
AcDb2dVertex
 10
3.749008
 20
8.884127
 30
0.0
  0
VERTEX
  5
47B
100
AcDbEntity
  8
0
  6
CONTINUOUS
 62
     7
100
AcDbVertex
100
AcDb2dVertex
 10
3.715688
 20
8.772641
 30
0.0
  0
VERTEX
  5
47C
100
AcDbEntity
  8
0
  6
CONTINUOUS
 62
     7
100
AcDbVertex
100
AcDb2dVertex
 10
3.719629
 20
8.692057
 30
0.0
  0
VERTEX
  5
47D
100
AcDbEntity
  8
0
  6
CONTINUOUS
 62
     7
100
AcDbVertex
100
AcDb2dVertex
 10
3.752581
 20
8.612892
 30
0.0
  0
VERTEX
  5
47E
100
AcDbEntity
  8
0
  6
CONTINUOUS
 62
     7
100
AcDbVertex
100
AcDb2dVertex
 10
3.786366
 20
8.579549
 30
0.0
  0
VERTEX
  5
47F
100
AcDbEntity
  8
0
  6
CONTINUOUS
 62
     7
100
AcDbVertex
100
AcDb2dVertex
 10
3.858093
 20
8.569586
 30
0.0
  0
VERTEX
  5
480
100
AcDbEntity
  8
0
  6
CONTINUOUS
 62
     7
100
AcDbVertex
100
AcDb2dVertex
 10
3.93435
 20
8.595933
 30
0.0
  0
VERTEX
  5
481
100
AcDbEntity
  8
0
  6
CONTINUOUS
 62
     7
100
AcDbVertex
100
AcDb2dVertex
 10
3.998888
 20
8.663711
 30
0.0
  0
VERTEX
  5
482
100
AcDbEntity
  8
0
  6
CONTINUOUS
 62
     7
100
AcDbVertex
100
AcDb2dVertex
 10
4.031192
 20
8.729912
 30
0.0
  0
VERTEX
  5
483
100
AcDbEntity
  8
0
  6
CONTINUOUS
 62
     7
100
AcDbVertex
100
AcDb2dVertex
 10
4.052407
 20
8.824651
 30
0.0
  0
VERTEX
  5
484
100
AcDbEntity
  8
0
  6
CONTINUOUS
 62
     7
100
AcDbVertex
100
AcDb2dVertex
 10
4.034942
 20
8.917498
 30
0.0
  0
VERTEX
  5
485
100
AcDbEntity
  8
0
  6
CONTINUOUS
 62
     7
100
AcDbVertex
100
AcDb2dVertex
 10
3.986346
 20
8.986205
 30
0.0
  0
VERTEX
  5
486
100
AcDbEntity
  8
0
  6
CONTINUOUS
 62
     7
100
AcDbVertex
100
AcDb2dVertex
 10
3.927222
 20
9.005931
 30
0.0
  0
VERTEX
  5
487
100
AcDbEntity
  8
0
  6
CONTINUOUS
 62
     7
100
AcDbVertex
100
AcDb2dVertex
 10
3.870784
 20
8.998265
 30
0.0
  0
VERTEX
  5
488
100
AcDbEntity
  8
0
  6
CONTINUOUS
 62
     7
100
AcDbVertex
100
AcDb2dVertex
 10
3.819362
 20
8.965114
 30
0.0
  0
SEQEND
  5
489
100
AcDbEntity
  8
0
  6
CONTINUOUS
 62
     7
  0
POLYLINE
  5
48A
100
AcDbEntity
  8
0
  6
CONTINUOUS
 62
     7
100
AcDb2dPolyline
 66
     1
 10
0.0
 20
0.0
 30
0.0
 70
     1
  0
VERTEX
  5
48B
100
AcDbEntity
  8
0
  6
CONTINUOUS
 62
     7
100
AcDbVertex
100
AcDb2dVertex
 10
2.700306
 20
8.017934
 30
0.0
  0
VERTEX
  5
48C
100
AcDbEntity
  8
0
  6
CONTINUOUS
 62
     7
100
AcDbVertex
100
AcDb2dVertex
 10
2.779791
 20
8.017934
 30
0.0
  0
VERTEX
  5
48D
100
AcDbEntity
  8
0
  6
CONTINUOUS
 62
     7
100
AcDbVertex
100
AcDb2dVertex
 10
2.805672
 20
8.055678
 30
0.0
  0
VERTEX
  5
48E
100
AcDbEntity
  8
0
  6
CONTINUOUS
 62
     7
100
AcDbVertex
100
AcDb2dVertex
 10
2.796406
 20
8.185506
 30
0.0
  0
VERTEX
  5
48F
100
AcDbEntity
  8
0
  6
CONTINUOUS
 62
     7
100
AcDbVertex
100
AcDb2dVertex
 10
2.777575
 20
8.504462
 30
0.0
  0
VERTEX
  5
490
100
AcDbEntity
  8
0
  6
CONTINUOUS
 62
     7
100
AcDbVertex
100
AcDb2dVertex
 10
2.797687
 20
8.621764
 30
0.0
  0
VERTEX
  5
491
100
AcDbEntity
  8
0
  6
CONTINUOUS
 62
     7
100
AcDbVertex
100
AcDb2dVertex
 10
2.839819
 20
8.685215
 30
0.0
  0
VERTEX
  5
492
100
AcDbEntity
  8
0
  6
CONTINUOUS
 62
     7
100
AcDbVertex
100
AcDb2dVertex
 10
2.959154
 20
8.755673
 30
0.0
  0
VERTEX
  5
493
100
AcDbEntity
  8
0
  6
CONTINUOUS
 62
     7
100
AcDbVertex
100
AcDb2dVertex
 10
3.759443
 20
9.17285
 30
0.0
  0
VERTEX
  5
494
100
AcDbEntity
  8
0
  6
CONTINUOUS
 62
     7
100
AcDbVertex
100
AcDb2dVertex
 10
4.133723
 20
9.381788
 30
0.0
  0
VERTEX
  5
495
100
AcDbEntity
  8
0
  6
CONTINUOUS
 62
     7
100
AcDbVertex
100
AcDb2dVertex
 10
4.16918
 20
9.383522
 30
0.0
  0
VERTEX
  5
496
100
AcDbEntity
  8
0
  6
CONTINUOUS
 62
     7
100
AcDbVertex
100
AcDb2dVertex
 10
4.186873
 20
9.352077
 30
0.0
  0
VERTEX
  5
497
100
AcDbEntity
  8
0
  6
CONTINUOUS
 62
     7
100
AcDbVertex
100
AcDb2dVertex
 10
4.201903
 20
9.242956
 30
0.0
  0
VERTEX
  5
498
100
AcDbEntity
  8
0
  6
CONTINUOUS
 62
     7
100
AcDbVertex
100
AcDb2dVertex
 10
4.26132
 20
8.16022
 30
0.0
  0
VERTEX
  5
499
100
AcDbEntity
  8
0
  6
CONTINUOUS
 62
     7
100
AcDbVertex
100
AcDb2dVertex
 10
4.261348
 20
8.148349
 30
0.0
  0
VERTEX
  5
49A
100
AcDbEntity
  8
0
  6
CONTINUOUS
 62
     7
100
AcDbVertex
100
AcDb2dVertex
 10
4.287976
 20
8.121752
 30
0.0
  0
VERTEX
  5
49B
100
AcDbEntity
  8
0
  6
CONTINUOUS
 62
     7
100
AcDbVertex
100
AcDb2dVertex
 10
4.348376
 20
8.162563
 30
0.0
  0
VERTEX
  5
49C
100
AcDbEntity
  8
0
  6
CONTINUOUS
 62
     7
100
AcDbVertex
100
AcDb2dVertex
 10
4.349682
 20
8.203315
 30
0.0
  0
VERTEX
  5
49D
100
AcDbEntity
  8
0
  6
CONTINUOUS
 62
     7
100
AcDbVertex
100
AcDb2dVertex
 10
4.331505
 20
8.532991
 30
0.0
  0
VERTEX
  5
49E
100
AcDbEntity
  8
0
  6
CONTINUOUS
 62
     7
100
AcDbVertex
100
AcDb2dVertex
 10
4.85733
 20
8.79035
 30
0.0
  0
VERTEX
  5
49F
100
AcDbEntity
  8
0
  6
CONTINUOUS
 62
     7
100
AcDbVertex
100
AcDb2dVertex
 10
5.028869
 20
8.850437
 30
0.0
  0
VERTEX
  5
4A0
100
AcDbEntity
  8
0
  6
CONTINUOUS
 62
     7
100
AcDbVertex
100
AcDb2dVertex
 10
5.099783
 20
8.853905
 30
0.0
  0
VERTEX
  5
4A1
100
AcDbEntity
  8
0
  6
CONTINUOUS
 62
     7
100
AcDbVertex
100
AcDb2dVertex
 10
5.272443
 20
8.758955
 30
0.0
  0
VERTEX
  5
4A2
100
AcDbEntity
  8
0
  6
CONTINUOUS
 62
     7
100
AcDbVertex
100
AcDb2dVertex
 10
6.134199
 20
8.051493
 30
0.0
  0
VERTEX
  5
4A3
100
AcDbEntity
  8
0
  6
CONTINUOUS
 62
     7
100
AcDbVertex
100
AcDb2dVertex
 10
6.363162
 20
7.862364
 30
0.0
  0
VERTEX
  5
4A4
100
AcDbEntity
  8
0
  6
CONTINUOUS
 62
     7
100
AcDbVertex
100
AcDb2dVertex
 10
6.378893
 20
7.804974
 30
0.0
  0
VERTEX
  5
4A5
100
AcDbEntity
  8
0
  6
CONTINUOUS
 62
     7
100
AcDbVertex
100
AcDb2dVertex
 10
6.330788
 20
7.731538
 30
0.0
  0
VERTEX
  5
4A6
100
AcDbEntity
  8
0
  6
CONTINUOUS
 62
     7
100
AcDbVertex
100
AcDb2dVertex
 10
5.970313
 20
7.577076
 30
0.0
  0
VERTEX
  5
4A7
100
AcDbEntity
  8
0
  6
CONTINUOUS
 62
     7
100
AcDbVertex
100
AcDb2dVertex
 10
5.944707
 20
7.526424
 30
0.0
  0
VERTEX
  5
4A8
100
AcDbEntity
  8
0
  6
CONTINUOUS
 62
     7
100
AcDbVertex
100
AcDb2dVertex
 10
6.000021
 20
7.456376
 30
0.0
  0
VERTEX
  5
4A9
100
AcDbEntity
  8
0
  6
CONTINUOUS
 62
     7
100
AcDbVertex
100
AcDb2dVertex
 10
6.01476
 20
7.458173
 30
0.0
  0
VERTEX
  5
4AA
100
AcDbEntity
  8
0
  6
CONTINUOUS
 62
     7
100
AcDbVertex
100
AcDb2dVertex
 10
6.67341
 20
7.728908
 30
0.0
  0
VERTEX
  5
4AB
100
AcDbEntity
  8
0
  6
CONTINUOUS
 62
     7
100
AcDbVertex
100
AcDb2dVertex
 10
6.734444
 20
7.775836
 30
0.0
  0
VERTEX
  5
4AC
100
AcDbEntity
  8
0
  6
CONTINUOUS
 62
     7
100
AcDbVertex
100
AcDb2dVertex
 10
6.771513
 20
7.837101
 30
0.0
  0
VERTEX
  5
4AD
100
AcDbEntity
  8
0
  6
CONTINUOUS
 62
     7
100
AcDbVertex
100
AcDb2dVertex
 10
6.803572
 20
7.974374
 30
0.0
  0
VERTEX
  5
4AE
100
AcDbEntity
  8
0
  6
CONTINUOUS
 62
     7
100
AcDbVertex
100
AcDb2dVertex
 10
6.827434
 20
8.279262
 30
0.0
  0
VERTEX
  5
4AF
100
AcDbEntity
  8
0
  6
CONTINUOUS
 62
     7
100
AcDbVertex
100
AcDb2dVertex
 10
6.899789
 20
9.310283
 30
0.0
  0
VERTEX
  5
4B0
100
AcDbEntity
  8
0
  6
CONTINUOUS
 62
     7
100
AcDbVertex
100
AcDb2dVertex
 10
6.873513
 20
9.451165
 30
0.0
  0
VERTEX
  5
4B1
100
AcDbEntity
  8
0
  6
CONTINUOUS
 62
     7
100
AcDbVertex
100
AcDb2dVertex
 10
6.828211
 20
9.584654
 30
0.0
  0
VERTEX
  5
4B2
100
AcDbEntity
  8
0
  6
CONTINUOUS
 62
     7
100
AcDbVertex
100
AcDb2dVertex
 10
6.751937
 20
9.690781
 30
0.0
  0
VERTEX
  5
4B3
100
AcDbEntity
  8
0
  6
CONTINUOUS
 62
     7
100
AcDbVertex
100
AcDb2dVertex
 10
5.753049
 20
10.559552
 30
0.0
  0
VERTEX
  5
4B4
100
AcDbEntity
  8
0
  6
CONTINUOUS
 62
     7
100
AcDbVertex
100
AcDb2dVertex
 10
5.660272
 20
10.606712
 30
0.0
  0
VERTEX
  5
4B5
100
AcDbEntity
  8
0
  6
CONTINUOUS
 62
     7
100
AcDbVertex
100
AcDb2dVertex
 10
5.582596
 20
10.609375
 30
0.0
  0
VERTEX
  5
4B6
100
AcDbEntity
  8
0
  6
CONTINUOUS
 62
     7
100
AcDbVertex
100
AcDb2dVertex
 10
5.487156
 20
10.578859
 30
0.0
  0
VERTEX
  5
4B7
100
AcDbEntity
  8
0
  6
CONTINUOUS
 62
     7
100
AcDbVertex
100
AcDb2dVertex
 10
4.910593
 20
10.343871
 30
0.0
  0
VERTEX
  5
4B8
100
AcDbEntity
  8
0
  6
CONTINUOUS
 62
     7
100
AcDbVertex
100
AcDb2dVertex
 10
4.254322
 20
10.020977
 30
0.0
  0
VERTEX
  5
4B9
100
AcDbEntity
  8
0
  6
CONTINUOUS
 62
     7
100
AcDbVertex
100
AcDb2dVertex
 10
4.115962
 20
9.943127
 30
0.0
  0
VERTEX
  5
4BA
100
AcDbEntity
  8
0
  6
CONTINUOUS
 62
     7
100
AcDbVertex
100
AcDb2dVertex
 10
4.061725
 20
9.862928
 30
0.0
  0
VERTEX
  5
4BB
100
AcDbEntity
  8
0
  6
CONTINUOUS
 62
     7
100
AcDbVertex
100
AcDb2dVertex
 10
4.013479
 20
9.660242
 30
0.0
  0
VERTEX
  5
4BC
100
AcDbEntity
  8
0
  6
CONTINUOUS
 62
     7
100
AcDbVertex
100
AcDb2dVertex
 10
4.01523
 20
9.64249
 30
0.0
  0
VERTEX
  5
4BD
100
AcDbEntity
  8
0
  6
CONTINUOUS
 62
     7
100
AcDbVertex
100
AcDb2dVertex
 10
2.95443
 20
10.04141
 30
0.0
  0
VERTEX
  5
4BE
100
AcDbEntity
  8
0
  6
CONTINUOUS
 62
     7
100
AcDbVertex
100
AcDb2dVertex
 10
2.750798
 20
10.108997
 30
0.0
  0
VERTEX
  5
4BF
100
AcDbEntity
  8
0
  6
CONTINUOUS
 62
     7
100
AcDbVertex
100
AcDb2dVertex
 10
2.666044
 20
10.124238
 30
0.0
  0
VERTEX
  5
4C0
100
AcDbEntity
  8
0
  6
CONTINUOUS
 62
     7
100
AcDbVertex
100
AcDb2dVertex
 10
2.557711
 20
10.093091
 30
0.0
  0
VERTEX
  5
4C1
100
AcDbEntity
  8
0
  6
CONTINUOUS
 62
     7
100
AcDbVertex
100
AcDb2dVertex
 10
1.396421
 20
9.525784
 30
0.0
  0
VERTEX
  5
4C2
100
AcDbEntity
  8
0
  6
CONTINUOUS
 62
     7
100
AcDbVertex
100
AcDb2dVertex
 10
1.196117
 20
9.393207
 30
0.0
  0
VERTEX
  5
4C3
100
AcDbEntity
  8
0
  6
CONTINUOUS
 62
     7
100
AcDbVertex
100
AcDb2dVertex
 10
1.141564
 20
9.319455
 30
0.0
  0
VERTEX
  5
4C4
100
AcDbEntity
  8
0
  6
CONTINUOUS
 62
     7
100
AcDbVertex
100
AcDb2dVertex
 10
1.146328
 20
8.957808
 30
0.0
  0
VERTEX
  5
4C5
100
AcDbEntity
  8
0
  6
CONTINUOUS
 62
     7
100
AcDbVertex
100
AcDb2dVertex
 10
1.211876
 20
7.881834
 30
0.0
  0
VERTEX
  5
4C6
100
AcDbEntity
  8
0
  6
CONTINUOUS
 62
     7
100
AcDbVertex
100
AcDb2dVertex
 10
1.269159
 20
7.503369
 30
0.0
  0
VERTEX
  5
4C7
100
AcDbEntity
  8
0
  6
CONTINUOUS
 62
     7
100
AcDbVertex
100
AcDb2dVertex
 10
1.33892
 20
7.435721
 30
0.0
  0
VERTEX
  5
4C8
100
AcDbEntity
  8
0
  6
CONTINUOUS
 62
     7
100
AcDbVertex
100
AcDb2dVertex
 10
1.694992
 20
7.252786
 30
0.0
  0
VERTEX
  5
4C9
100
AcDbEntity
  8
0
  6
CONTINUOUS
 62
     7
100
AcDbVertex
100
AcDb2dVertex
 10
2.062847
 20
7.097844
 30
0.0
  0
VERTEX
  5
4CA
100
AcDbEntity
  8
0
  6
CONTINUOUS
 62
     7
100
AcDbVertex
100
AcDb2dVertex
 10
2.262591
 20
7.053375
 30
0.0
  0
VERTEX
  5
4CB
100
AcDbEntity
  8
0
  6
CONTINUOUS
 62
     7
100
AcDbVertex
100
AcDb2dVertex
 10
2.306365
 20
7.112266
 30
0.0
  0
VERTEX
  5
4CC
100
AcDbEntity
  8
0
  6
CONTINUOUS
 62
     7
100
AcDbVertex
100
AcDb2dVertex
 10
2.297418
 20
7.150313
 30
0.0
  0
VERTEX
  5
4CD
100
AcDbEntity
  8
0
  6
CONTINUOUS
 62
     7
100
AcDbVertex
100
AcDb2dVertex
 10
1.733182
 20
7.396821
 30
0.0
  0
VERTEX
  5
4CE
100
AcDbEntity
  8
0
  6
CONTINUOUS
 62
     7
100
AcDbVertex
100
AcDb2dVertex
 10
1.413335
 20
7.594428
 30
0.0
  0
VERTEX
  5
4CF
100
AcDbEntity
  8
0
  6
CONTINUOUS
 62
     7
100
AcDbVertex
100
AcDb2dVertex
 10
1.356401
 20
7.7015
 30
0.0
  0
VERTEX
  5
4D0
100
AcDbEntity
  8
0
  6
CONTINUOUS
 62
     7
100
AcDbVertex
100
AcDb2dVertex
 10
1.277085
 20
8.900552
 30
0.0
  0
VERTEX
  5
4D1
100
AcDbEntity
  8
0
  6
CONTINUOUS
 62
     7
100
AcDbVertex
100
AcDb2dVertex
 10
1.267853
 20
9.115612
 30
0.0
  0
VERTEX
  5
4D2
100
AcDbEntity
  8
0
  6
CONTINUOUS
 62
     7
100
AcDbVertex
100
AcDb2dVertex
 10
1.285616
 20
9.148791
 30
0.0
  0
VERTEX
  5
4D3
100
AcDbEntity
  8
0
  6
CONTINUOUS
 62
     7
100
AcDbVertex
100
AcDb2dVertex
 10
1.325458
 20
9.148742
 30
0.0
  0
VERTEX
  5
4D4
100
AcDbEntity
  8
0
  6
CONTINUOUS
 62
     7
100
AcDbVertex
100
AcDb2dVertex
 10
1.467859
 20
9.122163
 30
0.0
  0
VERTEX
  5
4D5
100
AcDbEntity
  8
0
  6
CONTINUOUS
 62
     7
100
AcDbVertex
100
AcDb2dVertex
 10
2.388688
 20
8.792394
 30
0.0
  0
VERTEX
  5
4D6
100
AcDbEntity
  8
0
  6
CONTINUOUS
 62
     7
100
AcDbVertex
100
AcDb2dVertex
 10
2.56811
 20
8.691313
 30
0.0
  0
VERTEX
  5
4D7
100
AcDbEntity
  8
0
  6
CONTINUOUS
 62
     7
100
AcDbVertex
100
AcDb2dVertex
 10
2.617336
 20
8.609712
 30
0.0
  0
VERTEX
  5
4D8
100
AcDbEntity
  8
0
  6
CONTINUOUS
 62
     7
100
AcDbVertex
100
AcDb2dVertex
 10
2.657768
 20
8.443674
 30
0.0
  0
SEQEND
  5
4D9
100
AcDbEntity
  8
0
  6
CONTINUOUS
 62
     7
  0
POLYLINE
  5
4DA
100
AcDbEntity
  8
0
  6
CONTINUOUS
 62
     7
100
AcDb2dPolyline
 66
     1
 10
0.0
 20
0.0
 30
0.0
 70
     1
  0
VERTEX
  5
4DB
100
AcDbEntity
  8
0
  6
CONTINUOUS
 62
     7
100
AcDbVertex
100
AcDb2dVertex
 10
1.40525
 20
9.345276
 30
0.0
  0
VERTEX
  5
4DC
100
AcDbEntity
  8
0
  6
CONTINUOUS
 62
     7
100
AcDbVertex
100
AcDb2dVertex
 10
1.391095
 20
9.370432
 30
0.0
  0
VERTEX
  5
4DD
100
AcDbEntity
  8
0
  6
CONTINUOUS
 62
     7
100
AcDbVertex
100
AcDb2dVertex
 10
1.409016
 20
9.400388
 30
0.0
  0
VERTEX
  5
4DE
100
AcDbEntity
  8
0
  6
CONTINUOUS
 62
     7
100
AcDbVertex
100
AcDb2dVertex
 10
1.500129
 20
9.453311
 30
0.0
  0
VERTEX
  5
4DF
100
AcDbEntity
  8
0
  6
CONTINUOUS
 62
     7
100
AcDbVertex
100
AcDb2dVertex
 10
2.389885
 20
9.891018
 30
0.0
  0
VERTEX
  5
4E0
100
AcDbEntity
  8
0
  6
CONTINUOUS
 62
     7
100
AcDbVertex
100
AcDb2dVertex
 10
2.577384
 20
9.955117
 30
0.0
  0
VERTEX
  5
4E1
100
AcDbEntity
  8
0
  6
CONTINUOUS
 62
     7
100
AcDbVertex
100
AcDb2dVertex
 10
2.642008
 20
9.955046
 30
0.0
  0
VERTEX
  5
4E2
100
AcDbEntity
  8
0
  6
CONTINUOUS
 62
     7
100
AcDbVertex
100
AcDb2dVertex
 10
2.811515
 20
9.924564
 30
0.0
  0
VERTEX
  5
4E3
100
AcDbEntity
  8
0
  6
CONTINUOUS
 62
     7
100
AcDbVertex
100
AcDb2dVertex
 10
3.043527
 20
9.871289
 30
0.0
  0
VERTEX
  5
4E4
100
AcDbEntity
  8
0
  6
CONTINUOUS
 62
     7
100
AcDbVertex
100
AcDb2dVertex
 10
3.704035
 20
9.645108
 30
0.0
  0
VERTEX
  5
4E5
100
AcDbEntity
  8
0
  6
CONTINUOUS
 62
     7
100
AcDbVertex
100
AcDb2dVertex
 10
4.044082
 20
9.496954
 30
0.0
  0
VERTEX
  5
4E6
100
AcDbEntity
  8
0
  6
CONTINUOUS
 62
     7
100
AcDbVertex
100
AcDb2dVertex
 10
4.055171
 20
9.468417
 30
0.0
  0
VERTEX
  5
4E7
100
AcDbEntity
  8
0
  6
CONTINUOUS
 62
     7
100
AcDbVertex
100
AcDb2dVertex
 10
3.971609
 20
9.393246
 30
0.0
  0
VERTEX
  5
4E8
100
AcDbEntity
  8
0
  6
CONTINUOUS
 62
     7
100
AcDbVertex
100
AcDb2dVertex
 10
3.206303
 20
8.987474
 30
0.0
  0
VERTEX
  5
4E9
100
AcDbEntity
  8
0
  6
CONTINUOUS
 62
     7
100
AcDbVertex
100
AcDb2dVertex
 10
2.89735
 20
8.830196
 30
0.0
  0
VERTEX
  5
4EA
100
AcDbEntity
  8
0
  6
CONTINUOUS
 62
     7
100
AcDbVertex
100
AcDb2dVertex
 10
2.775808
 20
8.804865
 30
0.0
  0
VERTEX
  5
4EB
100
AcDbEntity
  8
0
  6
CONTINUOUS
 62
     7
100
AcDbVertex
100
AcDb2dVertex
 10
2.648993
 20
8.82128
 30
0.0
  0
VERTEX
  5
4EC
100
AcDbEntity
  8
0
  6
CONTINUOUS
 62
     7
100
AcDbVertex
100
AcDb2dVertex
 10
2.534914
 20
8.84155
 30
0.0
  0
SEQEND
  5
4ED
100
AcDbEntity
  8
0
  6
CONTINUOUS
 62
     7
  0
POLYLINE
  5
4EE
100
AcDbEntity
  8
0
  6
CONTINUOUS
 62
     7
100
AcDb2dPolyline
 66
     1
 10
0.0
 20
0.0
 30
0.0
 70
     1
  0
VERTEX
  5
4EF
100
AcDbEntity
  8
0
  6
CONTINUOUS
 62
     7
100
AcDbVertex
100
AcDb2dVertex
 10
6.798849
 20
9.260111
 30
0.0
  0
VERTEX
  5
4F0
100
AcDbEntity
  8
0
  6
CONTINUOUS
 62
     7
100
AcDbVertex
100
AcDb2dVertex
 10
6.787706
 20
9.09155
 30
0.0
  0
VERTEX
  5
4F1
100
AcDbEntity
  8
0
  6
CONTINUOUS
 62
     7
100
AcDbVertex
100
AcDb2dVertex
 10
6.666299
 20
8.006433
 30
0.0
  0
VERTEX
  5
4F2
100
AcDbEntity
  8
0
  6
CONTINUOUS
 62
     7
100
AcDbVertex
100
AcDb2dVertex
 10
6.629511
 20
7.965861
 30
0.0
  0
VERTEX
  5
4F3
100
AcDbEntity
  8
0
  6
CONTINUOUS
 62
     7
100
AcDbVertex
100
AcDb2dVertex
 10
6.572121
 20
7.95013
 30
0.0
  0
VERTEX
  5
4F4
100
AcDbEntity
  8
0
  6
CONTINUOUS
 62
     7
100
AcDbVertex
100
AcDb2dVertex
 10
6.4912
 20
7.97535
 30
0.0
  0
VERTEX
  5
4F5
100
AcDbEntity
  8
0
  6
CONTINUOUS
 62
     7
100
AcDbVertex
100
AcDb2dVertex
 10
6.367543
 20
8.037056
 30
0.0
  0
VERTEX
  5
4F6
100
AcDbEntity
  8
0
  6
CONTINUOUS
 62
     7
100
AcDbVertex
100
AcDb2dVertex
 10
6.03291
 20
8.272714
 30
0.0
  0
VERTEX
  5
4F7
100
AcDbEntity
  8
0
  6
CONTINUOUS
 62
     7
100
AcDbVertex
100
AcDb2dVertex
 10
5.500601
 20
8.718417
 30
0.0
  0
VERTEX
  5
4F8
100
AcDbEntity
  8
0
  6
CONTINUOUS
 62
     7
100
AcDbVertex
100
AcDb2dVertex
 10
5.277769
 20
8.914307
 30
0.0
  0
VERTEX
  5
4F9
100
AcDbEntity
  8
0
  6
CONTINUOUS
 62
     7
100
AcDbVertex
100
AcDb2dVertex
 10
5.25433
 20
8.997169
 30
0.0
  0
VERTEX
  5
4FA
100
AcDbEntity
  8
0
  6
CONTINUOUS
 62
     7
100
AcDbVertex
100
AcDb2dVertex
 10
5.261759
 20
9.061403
 30
0.0
  0
VERTEX
  5
4FB
100
AcDbEntity
  8
0
  6
CONTINUOUS
 62
     7
100
AcDbVertex
100
AcDb2dVertex
 10
5.285917
 20
9.144112
 30
0.0
  0
VERTEX
  5
4FC
100
AcDbEntity
  8
0
  6
CONTINUOUS
 62
     7
100
AcDbVertex
100
AcDb2dVertex
 10
5.641281
 20
10.334373
 30
0.0
  0
VERTEX
  5
4FD
100
AcDbEntity
  8
0
  6
CONTINUOUS
 62
     7
100
AcDbVertex
100
AcDb2dVertex
 10
5.675232
 20
10.432965
 30
0.0
  0
VERTEX
  5
4FE
100
AcDbEntity
  8
0
  6
CONTINUOUS
 62
     7
100
AcDbVertex
100
AcDb2dVertex
 10
5.706362
 20
10.457105
 30
0.0
  0
VERTEX
  5
4FF
100
AcDbEntity
  8
0
  6
CONTINUOUS
 62
     7
100
AcDbVertex
100
AcDb2dVertex
 10
5.752435
 20
10.439972
 30
0.0
  0
VERTEX
  5
500
100
AcDbEntity
  8
0
  6
CONTINUOUS
 62
     7
100
AcDbVertex
100
AcDb2dVertex
 10
6.69833
 20
9.597689
 30
0.0
  0
VERTEX
  5
501
100
AcDbEntity
  8
0
  6
CONTINUOUS
 62
     7
100
AcDbVertex
100
AcDb2dVertex
 10
6.774762
 20
9.488339
 30
0.0
  0
VERTEX
  5
502
100
AcDbEntity
  8
0
  6
CONTINUOUS
 62
     7
100
AcDbVertex
100
AcDb2dVertex
 10
6.797027
 20
9.363416
 30
0.0
  0
SEQEND
  5
503
100
AcDbEntity
  8
0
  6
CONTINUOUS
 62
     7
  0
POLYLINE
  5
504
100
AcDbEntity
  8
0
  6
CONTINUOUS
 62
     7
100
AcDb2dPolyline
 66
     1
 10
0.0
 20
0.0
 30
0.0
 70
     1
  0
VERTEX
  5
505
100
AcDbEntity
  8
0
  6
CONTINUOUS
 62
     7
100
AcDbVertex
100
AcDb2dVertex
 10
4.1071
 20
9.595814
 30
0.0
  0
VERTEX
  5
506
100
AcDbEntity
  8
0
  6
CONTINUOUS
 62
     7
100
AcDbVertex
100
AcDb2dVertex
 10
4.106255
 20
9.613082
 30
0.0
  0
VERTEX
  5
507
100
AcDbEntity
  8
0
  6
CONTINUOUS
 62
     7
100
AcDbVertex
100
AcDb2dVertex
 10
4.146653
 20
9.71199
 30
0.0
  0
VERTEX
  5
508
100
AcDbEntity
  8
0
  6
CONTINUOUS
 62
     7
100
AcDbVertex
100
AcDb2dVertex
 10
4.206706
 20
9.805398
 30
0.0
  0
VERTEX
  5
509
100
AcDbEntity
  8
0
  6
CONTINUOUS
 62
     7
100
AcDbVertex
100
AcDb2dVertex
 10
4.412827
 20
9.951184
 30
0.0
  0
VERTEX
  5
50A
100
AcDbEntity
  8
0
  6
CONTINUOUS
 62
     7
100
AcDbVertex
100
AcDb2dVertex
 10
4.860455
 20
10.179865
 30
0.0
  0
VERTEX
  5
50B
100
AcDbEntity
  8
0
  6
CONTINUOUS
 62
     7
100
AcDbVertex
100
AcDb2dVertex
 10
5.443149
 20
10.421615
 30
0.0
  0
VERTEX
  5
50C
100
AcDbEntity
  8
0
  6
CONTINUOUS
 62
     7
100
AcDbVertex
100
AcDb2dVertex
 10
5.54409
 20
10.471787
 30
0.0
  0
VERTEX
  5
50D
100
AcDbEntity
  8
0
  6
CONTINUOUS
 62
     7
100
AcDbVertex
100
AcDb2dVertex
 10
5.577585
 20
10.447576
 30
0.0
  0
VERTEX
  5
50E
100
AcDbEntity
  8
0
  6
CONTINUOUS
 62
     7
100
AcDbVertex
100
AcDb2dVertex
 10
5.56879
 20
10.363138
 30
0.0
  0
VERTEX
  5
50F
100
AcDbEntity
  8
0
  6
CONTINUOUS
 62
     7
100
AcDbVertex
100
AcDb2dVertex
 10
5.307413
 20
9.497351
 30
0.0
  0
VERTEX
  5
510
100
AcDbEntity
  8
0
  6
CONTINUOUS
 62
     7
100
AcDbVertex
100
AcDb2dVertex
 10
5.181981
 20
9.155184
 30
0.0
  0
VERTEX
  5
511
100
AcDbEntity
  8
0
  6
CONTINUOUS
 62
     7
100
AcDbVertex
100
AcDb2dVertex
 10
5.121928
 20
9.061777
 30
0.0
  0
VERTEX
  5
512
100
AcDbEntity
  8
0
  6
CONTINUOUS
 62
     7
100
AcDbVertex
100
AcDb2dVertex
 10
4.920677
 20
8.94854
 30
0.0
  0
VERTEX
  5
513
100
AcDbEntity
  8
0
  6
CONTINUOUS
 62
     7
100
AcDbVertex
100
AcDb2dVertex
 10
4.326035
 20
8.686819
 30
0.0
  0
VERTEX
  5
514
100
AcDbEntity
  8
0
  6
CONTINUOUS
 62
     7
100
AcDbVertex
100
AcDb2dVertex
 10
4.32223
 20
8.701219
 30
0.0
  0
VERTEX
  5
515
100
AcDbEntity
  8
0
  6
CONTINUOUS
 62
     7
100
AcDbVertex
100
AcDb2dVertex
 10
4.292473
 20
9.240923
 30
0.0
  0
VERTEX
  5
516
100
AcDbEntity
  8
0
  6
CONTINUOUS
 62
     7
100
AcDbVertex
100
AcDb2dVertex
 10
4.267598
 20
9.485268
 30
0.0
  0
VERTEX
  5
517
100
AcDbEntity
  8
0
  6
CONTINUOUS
 62
     7
100
AcDbVertex
100
AcDb2dVertex
 10
4.219948
 20
9.534635
 30
0.0
  0
SEQEND
  5
518
100
AcDbEntity
  8
0
  6
CONTINUOUS
 62
     7
  0
SOLID
  5
519
100
AcDbEntity
  8
0
 62
     7
100
AcDbTrace
 10
1.512811
 20
8.700869
 30
0.0
 11
1.507555
 21
8.610142
 31
0.0
 12
1.515616
 22
8.524589
 32
0.0
 13
1.515616
 23
8.524589
 33
0.0
  0
SOLID
  5
51A
100
AcDbEntity
  8
0
 62
     7
100
AcDbTrace
 10
1.512811
 20
8.700869
 30
0.0
 11
1.515616
 21
8.524589
 31
0.0
 12
1.562092
 22
8.433161
 32
0.0
 13
1.562092
 23
8.433161
 33
0.0
  0
SOLID
  5
51B
100
AcDbEntity
  8
0
 62
     7
100
AcDbTrace
 10
1.512811
 20
8.700869
 30
0.0
 11
1.562092
 21
8.433161
 31
0.0
 12
1.62295
 22
8.377978
 32
0.0
 13
1.62295
 23
8.377978
 33
0.0
  0
SOLID
  5
51C
100
AcDbEntity
  8
0
 62
     7
100
AcDbTrace
 10
1.512811
 20
8.700869
 30
0.0
 11
1.62295
 21
8.377978
 31
0.0
 12
1.681916
 22
8.361476
 32
0.0
 13
1.681916
 23
8.361476
 33
0.0
  0
SOLID
  5
51D
100
AcDbEntity
  8
0
 62
     7
100
AcDbTrace
 10
1.512811
 20
8.700869
 30
0.0
 11
1.681916
 21
8.361476
 31
0.0
 12
1.758331
 22
8.3846
 32
0.0
 13
1.758331
 23
8.3846
 33
0.0
  0
SOLID
  5
51E
100
AcDbEntity
  8
0
 62
     7
100
AcDbTrace
 10
1.512811
 20
8.700869
 30
0.0
 11
1.758331
 21
8.3846
 31
0.0
 12
1.79999
 22
8.457721
 32
0.0
 13
1.79999
 23
8.457721
 33
0.0
  0
SOLID
  5
51F
100
AcDbEntity
  8
0
 62
     7
100
AcDbTrace
 10
1.512811
 20
8.700869
 30
0.0
 11
1.79999
 21
8.457721
 31
0.0
 12
1.823798
 22
8.565511
 32
0.0
 13
1.823798
 23
8.565511
 33
0.0
  0
SOLID
  5
520
100
AcDbEntity
  8
0
 62
     7
100
AcDbTrace
 10
1.512811
 20
8.700869
 30
0.0
 11
1.823798
 21
8.565511
 31
0.0
 12
1.796032
 22
8.670778
 32
0.0
 13
1.796032
 23
8.670778
 33
0.0
  0
SOLID
  5
521
100
AcDbEntity
  8
0
 62
     7
100
AcDbTrace
 10
1.512811
 20
8.700869
 30
0.0
 11
1.796032
 21
8.670778
 31
0.0
 12
1.749872
 22
8.75576
 32
0.0
 13
1.749872
 23
8.75576
 33
0.0
  0
SOLID
  5
522
100
AcDbEntity
  8
0
 62
     7
100
AcDbTrace
 10
1.512811
 20
8.700869
 30
0.0
 11
1.749872
 21
8.75576
 31
0.0
 12
1.686578
 22
8.794668
 32
0.0
 13
1.686578
 23
8.794668
 33
0.0
  0
SOLID
  5
523
100
AcDbEntity
  8
0
 62
     7
100
AcDbTrace
 10
1.512811
 20
8.700869
 30
0.0
 11
1.686578
 21
8.794668
 31
0.0
 12
1.614452
 22
8.802772
 32
0.0
 13
1.614452
 23
8.802772
 33
0.0
  0
SOLID
  5
524
100
AcDbEntity
  8
0
 62
     7
100
AcDbTrace
 10
1.512811
 20
8.700869
 30
0.0
 11
1.614452
 21
8.802772
 31
0.0
 12
1.551877
 22
8.760939
 32
0.0
 13
1.551877
 23
8.760939
 33
0.0
  0
POLYLINE
  5
525
100
AcDbEntity
  8
0
  6
CONTINUOUS
 62
     7
100
AcDb2dPolyline
 66
     1
 10
0.0
 20
0.0
 30
0.0
 70
     1
  0
VERTEX
  5
526
100
AcDbEntity
  8
0
  6
CONTINUOUS
 62
     7
100
AcDbVertex
100
AcDb2dVertex
 10
1.551877
 20
8.760939
 30
0.0
  0
VERTEX
  5
527
100
AcDbEntity
  8
0
  6
CONTINUOUS
 62
     7
100
AcDbVertex
100
AcDb2dVertex
 10
1.512811
 20
8.700869
 30
0.0
  0
VERTEX
  5
528
100
AcDbEntity
  8
0
  6
CONTINUOUS
 62
     7
100
AcDbVertex
100
AcDb2dVertex
 10
1.507555
 20
8.610142
 30
0.0
  0
VERTEX
  5
529
100
AcDbEntity
  8
0
  6
CONTINUOUS
 62
     7
100
AcDbVertex
100
AcDb2dVertex
 10
1.515616
 20
8.524589
 30
0.0
  0
VERTEX
  5
52A
100
AcDbEntity
  8
0
  6
CONTINUOUS
 62
     7
100
AcDbVertex
100
AcDb2dVertex
 10
1.562092
 20
8.433161
 30
0.0
  0
VERTEX
  5
52B
100
AcDbEntity
  8
0
  6
CONTINUOUS
 62
     7
100
AcDbVertex
100
AcDb2dVertex
 10
1.62295
 20
8.377978
 30
0.0
  0
VERTEX
  5
52C
100
AcDbEntity
  8
0
  6
CONTINUOUS
 62
     7
100
AcDbVertex
100
AcDb2dVertex
 10
1.681916
 20
8.361476
 30
0.0
  0
VERTEX
  5
52D
100
AcDbEntity
  8
0
  6
CONTINUOUS
 62
     7
100
AcDbVertex
100
AcDb2dVertex
 10
1.758331
 20
8.3846
 30
0.0
  0
VERTEX
  5
52E
100
AcDbEntity
  8
0
  6
CONTINUOUS
 62
     7
100
AcDbVertex
100
AcDb2dVertex
 10
1.79999
 20
8.457721
 30
0.0
  0
VERTEX
  5
52F
100
AcDbEntity
  8
0
  6
CONTINUOUS
 62
     7
100
AcDbVertex
100
AcDb2dVertex
 10
1.823798
 20
8.565511
 30
0.0
  0
VERTEX
  5
530
100
AcDbEntity
  8
0
  6
CONTINUOUS
 62
     7
100
AcDbVertex
100
AcDb2dVertex
 10
1.796032
 20
8.670778
 30
0.0
  0
VERTEX
  5
531
100
AcDbEntity
  8
0
  6
CONTINUOUS
 62
     7
100
AcDbVertex
100
AcDb2dVertex
 10
1.749872
 20
8.75576
 30
0.0
  0
VERTEX
  5
532
100
AcDbEntity
  8
0
  6
CONTINUOUS
 62
     7
100
AcDbVertex
100
AcDb2dVertex
 10
1.686578
 20
8.794668
 30
0.0
  0
VERTEX
  5
533
100
AcDbEntity
  8
0
  6
CONTINUOUS
 62
     7
100
AcDbVertex
100
AcDb2dVertex
 10
1.614452
 20
8.802772
 30
0.0
  0
SEQEND
  5
534
100
AcDbEntity
  8
0
  6
CONTINUOUS
 62
     7
  0
ENDBLK
  5
536
100
AcDbEntity
  8
0
100
AcDbBlockEnd
  0
ENDSEC
  0
SECTION
  2
ENTITIES
  0
INSERT
  5
537
100
AcDbEntity
  8
0
100
AcDbBlockReference
  2
SHEET_3
 10
4.25
 20
6.208567
 30
0.0
  0
ENDSEC
  0
SECTION
  2
OBJECTS
  0
DICTIONARY
  5
C
100
AcDbDictionary
  3
ACAD_GROUP
350
D
  3
ACAD_MLINESTYLE
350
1B
  0
DICTIONARY
  5
D
102
{ACAD_REACTORS
330
C
102
}
100
AcDbDictionary
  0
DICTIONARY
  5
1B
102
{ACAD_REACTORS
330
C
102
}
100
AcDbDictionary
  3
STANDARD
350
1C
  0
MLINESTYLE
  5
1C
102
{ACAD_REACTORS
330
1B
102
}
100
AcDbMlineStyle
  2
STANDARD
 70
     0
  3

 62
   256
 51
90.0
 52
90.0
 71
     2
 49
0.5
 62
   256
  6
BYLAYER
 49
-0.5
 62
   256
  6
BYLAYER
  0
ENDSEC
  0
EOF
